Oops, an error
Loading. Please wait.

Iron Fist bass

version 2
version 2

Whole song

Interactive

1,614 views 1 this week
no commentswrite comment
1 2 3 4 5
2 more votes to show rating
add to favorites
×
Save as Personal and add changes to this tab that will be seen only by you. Learn more ›
×
You can save this tab as Personal to edit and correct it or add notes. All changes will be seen only by you. Learn more »
launch autoscroll
font size
0
reset
guitar tuner
backing track
0:00
0:00
edit
Autoscroll
slow
fast
+/-
esc
set tempo
stop
Author
Difficulty
Artist:Motorhead.
Album:Iron Fist.
Tab:Lopez017.
Tuning:Standard.


Intro (6 Bars Instrumental)
G|----------------------|
D|---------1---333------|
A|-3333333---1----------|
E|----------------------|
Changes immediately over to the verse


Verse (2 Bars Vocals come in here)
G|----------------------------------------------------------|
D|----------------------1---333-----------------------------|
A|-33333333333333333333---1---------------------------------|
E|----------------------------------------------------------|

Just like the Intro except slightly longer on A5

Chorus (Goes entirely in time to the vocals)

G|-------------------------------------|
D|-333-111-444-333---------------------|
A|-------------------------------------|
E|-------------------------------------|
You know me Evil Eye   You know me Prepare to Die

G|----------------------------------------|
D|-333-111----11--------------------------|
A|---------------00-333-------------------|
E|----------------------------------------|
You know me snakebite kiss Devils grip the Iron fist

Make sure you pause before you play D3 again and it will go completely in time with the lyrics

The A5 at the end of the chorus is the beginning of the next verse and continues just as
verse would although the third Verse with the guitar solo only plays A5 continuously
the guitar solo/chorus where it resumes as normal.
Suggest correction
Creating personal tab
Creating personal tab
You can edit any tab online and save it as your Personal.

You can edit, replace or remove any tab part or add personal notes – all changes will be seen only by you.

Personal tabs can be accessed anytime from any device, even offline.
Learn more »
Give kudos to tab author, rate the tab!
1 2 3 4 5
comments
print report bad tab
guest
You may want to rate the tab now too:
select rating
Wanna post a correction for this tab? Suggest correction