Oops, an error
Loading. Please wait.

El Fin Del Camino Tab

version 3
version 3

Whole song

Interactive

28 views 1 this week
no commentswrite comment
1 2 3 4 5
3 more votes to show rating
add to favorites
launch autoscroll
font size
0
reset
how to read this tab
guitar tuner
Autoscroll
slow
fast
+/-
esc
set tempo
stop
Help us to improve Ultimate-Guitar.com Take our survey!
×
este es el intro acustico que toca Frank....
este esta 100% correcto...


Frank


e|------------------------------------------------------------
B|-----------------------1--------1--------3/5-3--1--0h1p0----
G|-------2/5-2---------0--------0---------------------------0-
D|-----2-------------2--------0---------2---------------------
A|--0-----------0--3--------2--------0------------------------
E|------------------------------------------------------------

e|--------------------------------|
B|--------1---------3-------------|
G|------0---------0---------------|X2
D|----2---------4-----------------|
A|--3---------5----------[0]------|
E|------------------------|-------|
                          |___________(este se toca al terminar la segunda vuelta,
                                        es la entrada del requinto de carlitos)


Carlitos

(leve distorción)


e|-12~ 12---------12--10------------------------------------------------|
B|-------------13----------13--12--10~----------------------------------|
G|----------14--------------------------12~--10--9--9h10-9--------------|
D|----------------------------------------------------------------------|
A|--------------------------------------------------------------12-12---|
E|----------------------------------------------------------------------|


e|--------------12~-12---------12--15--13--12/10-12---15----------13-------------------------|
B|--------------------------13---------------------------13----13-----12---------------------|
G|----------14-----------14---------------------------------12-----------10--12-12h3-12-10---|
D|-------14----------------------------------------------------------------------------------|
A|-12h15-------------------------------------------------------------------------------------|
E|-------------------------------------------------------------------------------------------|


e|--------------------------------------------------------------------|
B|--------------------------------------------------------------------|
G|-------9------------------------------------9-----------------------|
D|-10h12---12-10-10h12-10-9-9h10-9------10h12---12-10-10h12-10-9------|
A|----------------------------------12----------------------------12--|
E|--------------------------------------------------------------------|


e|--------------------------------------------------------------------|
B|--------------------------------------------------------------------|
G|-------9-----------------------------------9---------12--9--12------|
D|-10h12---12-10-10h12-10-9-9h10-9-----10h12---12--10---------------7-|
A|---------------------------------12-------------------------------7-|
E|------------------------------------------------------------------5-|


Dudas o comentarios a wesborland_02@
Suggest correction
Give kudos to tab author, rate the tab!
1 2 3 4 5
comments
print report bad tab
guest
You may want to rate the tab now too:
select rating
Wanna post a correction for this tab? Suggest correction