Oops, an error
Loading. Please wait.

El Fin Del Camino Tab

version 5
version 5

Whole song

Interactive

50 views 3 this week
no commentswrite comment
1 2 3 4 5
3 more votes to show rating
add to favorites
launch autoscroll
font size
0
reset
how to read this tab
guitar tuner
×
Best way to learn
"El Fin Del Camino"
Autoscroll
slow
fast
+/-
esc
set tempo
stop
este es el solo de carlitos
           T      T      T      T      T      T      T
----------15-5h7-16-5h8-15-5h7-16-5h8-15-5h7-16-5h8-15-5h7------
5/12-14-12------------------------------------------------------
----------------------------------------------------------------
----------------------------------------------------------------
----------------------------------------------------------------
----------------------------------------------------------------

----------------------------------------------------------------
7h9-7-5------------7h8-------7-8-7------------------------------
-------9-7-9-10-9-7---9-8-7-9-----10----------------------------
-------------------------------------------9-11-12-------9-11-12
------------------------------------9-11-12-------9-11-12-------
----------------------------------------------------------------

----------------------------------------------------------------
-------------------------------------------13-12-15-14-12-------
--------------------------------------14-13---------------------
--------12-13-15--------12-13-15-13-15--------------------------
12-13-15--------12-13-15----------------------------------------
----------------------------------------------------------------

----------------------------------------------------------------
15-14-12-----------------12-14-15--------14-15-17---------------
--------15-14-12-12-13-15--------14-16-17-----------------------
----------------------------------------------------------------
----------------------------------------------------------------
----------------------------------------------------------------

17-16-14----------------------15/17/15p-------------------------
--------17-16-14------------------------------------------------
----------------17-16-14-14-16----------------------------------
----------------------------------------------------------------
----------------------------------------------------------------
----------------------------------------------------------------
Suggest correction
Give kudos to tab author, rate the tab!
1 2 3 4 5
comments
print report bad tab
guest
You may want to rate the tab now too:
select rating
Wanna post a correction for this tab? Suggest correction