Oops, an error
Loading. Please wait.

Solo Tú Tab

13 views 1 this week
no commentswrite comment
1 2 3 4 5
3 more votes to show rating
add to favorites
launch autoscroll
font size
0
reset
how to read this tab
guitar tuner
Autoscroll
slow
fast
+/-
esc
set tempo
stop
Help us to improve Ultimate-Guitar.com Take our survey!
×
Este es el solo de guitarra como esta en el cd espero les ayude,
aqui va.

e-----------9-9h10p9-------12-10-9---------9h10p9(X4)-12-17-16-
b---9-10-12----------12-10---------9-10-12----------------------
D---------------------------------------------------------------
G---------------------------------------------------------------
A---------------------------------------------------------------
E---------------------------------------------------------------

e-----------------------------9-9h10p9-----------9-10-----------
b---17-12-10s9-10--9h10-10-12----------12--10-12------12-13-12--
D---------------------------------------------------------------
G---------------------------------------------------------------
A---------------------------------------------------------------
E---------------------------------------------------------------

Es mi primera transcripcion mas adelante estare subiendo el solo de rey
de gloria y otros nos veremos luego.

Bendiciones

Saludes a la Iglesia Casa del Alfarero Tegucigalpa, Honduras.
Cualquier consulta mi correo es joscastillo19@
Suggest correction
Give kudos to tab author, rate the tab!
1 2 3 4 5
comments
print report bad tab
guest
You may want to rate the tab now too:
select rating
Wanna post a correction for this tab? Suggest correction