Oops, an error
Loading. Please wait.

Si Tu No Vuelves Tab

version 2
version 2

Whole song

196 views 1 this week
no commentswrite comment
1 2 3 4 5
3 more votes to show rating
add to favorites
×
Save as Personal and add changes to this tab that will be seen only by you. Learn more ›
×
You can save this tab as Personal to edit and correct it or add notes. All changes will be seen only by you. Learn more »
save as personal
new!
launch autoscroll
font size
0
reset
how to read this tab
guitar tuner
Autoscroll
slow
fast
+/-
esc
set tempo
stop
Una canción mas que va exclusivamente para la chica que tomo mi corazón.
Cada noche vendrá una estrella a hacerme compañía y eres tu Yordania.

G                        Bm
si tu no vuelves, se secaran todos los mares
        C                       Bm
y esperare sin ti, tapiado al fondo de algún recuerdo
G                          Bm
si tu no vuelves, mi voluntad se hará pequeña
        C                     Bm
me quedare aquí, junto a mi perro espiando horizontes

    G                                   Bm
e|--------------------------------------9~.--11-----------|
b|--10/11~.-9-7---7---10/11-11-9-7----7-------------------|
g|-------------10------------------10---------------------|
D|--------------------------------------------------------|
A|--------------------------------------------------------|
E|--------------------------------------------------------|
    G                                    Bm
e|--------------------------------------------------------|
b|--10/11~-11-9-7---7--10/11-11-9-7-----------------------|
g|---------------10-----------------10-8------------------|
D|---------------------------------------8.-9-11~.--------|
A|--------------------------------------------------------|
E|--------------------------------------------------------|

G                          Bm
si tu no vuelves, no quedaran mas que desiertos
         C                   Bm
y escuchare por si, algún latido le queda a esta tierra
                G
que era tan serena cuando me querías,
                   Bm
había un perfume fresco que yo respiraba,
           G                                   D
era tan bonita, era así de grande y no tenia fin.

         G                                      Bm
y cada noche vendrá una estrella a hacerme compañía
         G                               D
que te cuente como estoy, y sepas lo que hay
       G                             Bm
dime amor, amor, amor estoy aquí no ves
         G                                  D
si no vuelves, no habrá vida, no se lo que haré

    G                      Bm    G                            D
e|-------------------------9~.---9----11----9----11----9----9--------|
b|----7---6---7---6---7------------11----11---11----11---11---7-9~.--|
g|--6---6---6---6---6---6--------------------------------------------|
D|-------------------------------------------------------------------|
A|-------------------------------------------------------------------|
E|-------------------------------------------------------------------|
    G                                  Bm
e|-------------------------------------9~.--11-----------|
b|--10/11-11-9-7---7-10/11-11-9-7----7-------------------|
g|--------------10----------------10---------------------|
D|-------------------------------------------------------|
A|-------------------------------------------------------|
E|-------------------------------------------------------|
    G                                  Bm
e|-------------------------------------------------------|
b|--10/11~-11-9-7---7-10/11-11-9-7-----------------------|
g|---------------10----------------10-8------------------|
D|--------------------------------------8.-9-11~.--------|
A|-------------------------------------------------------|
E|-------------------------------------------------------|


G                              Bm
si tu no vuelves, no habrá esperanza, ni habrá nada
      C                       Bm
caminare sin ti, con mi tristeza bebiendo lluvia
               G
que era tan serena cuando me querías
                   Bm
había un perfume fresco que yo respiraba,
           G                                    D
era tan bonita, y era así de grande y no tenia fin.

         G                                      Bm
y cada noche vendrá una estrella a hacerme compañía
         G                               D
que te cuente como estoy, y sepas lo que hay
       G                             Bm
dime amor, amor, amor estoy aquí no ves
         G                                   D
si no vuelves, no habrá vida, no se lo que haré

    G                      Bm    G                            D
e|-------------------------9~.---9----11----9----11----9----9--------|
b|----7---6---7---6---7------------11----11---11----11---11---7-9~.--|
g|--6---6---6---6---6---6--------------------------------------------|
D|-------------------------------------------------------------------|
A|--------------------------------------------------------Final-x2---|
E|-------------------------------------------------------------------|
Suggest correction
Give kudos to tab author, rate the tab!
1 2 3 4 5
comments
print report bad tab
guest
Wanna post a correction for this tab? Suggest correction