Oops, an error
Loading. Please wait.

Déjate Algo Bass Tab

87 views 1 this week
no commentswrite comment
1 2 3 4 5
3 more votes to show rating
add to favorites
launch autoscroll
font size
0
reset
guitar tuner
Autoscroll
slow
fast
+/-
esc
set tempo
stop
Help us to improve Ultimate-Guitar.com Take our survey!
×
INTRO

G--------------------
D--------------------
A-7---7--5-7-------5-
E---7---7----7-0-7---


VERSO

G---------------------
D---------------------
A-7---7---5-7-------5-
E---7---7-----7-0-7---

CUANDO DICE TODOS SABEMOS QUE EL NEGOCIO NACIONAL

G---------
D---------
A-0-2-3-5-
E---------

VUELVES AL VERSO

G---------------------
D---------------------
A-7---7---5-7-------5-
E---7---7-----7-0-7---

COROS

G---------------------------------------------
D-----------5---5---------5---5-7-5---5---5---
A-5-7-5-7-7---7---7-5-7-7---7-------7---7---5-
E---------------------------------------------

CONTINUA CORO

G----------------------------------------------
D-----------5---5----------5-7-5-7-5----5------
A-5-7-5-7-7---7---7-5-7--7------------7--5-7---
E----------------------------------------------

Y EL FINAL ES ASI

G-----------------------
E-----------5---5-------
A-5-7-5-7-7---7---7-5-7-
E-----------------------
Suggest correction
Give kudos to tab author, rate the tab!
1 2 3 4 5
comments
print report bad tab
guest
You may want to rate the tab now too:
select rating
Wanna post a correction for this tab? Suggest correction