Oops, an error
Loading. Please wait.

Princesa Tab

487 views 1 this week
no commentswrite comment
1 2 3 4 5
3 more votes to show rating
add to favorites
×
Save as Personal and add changes to this tab that will be seen only by you. Learn more ›
×
You can save this tab as Personal to edit and correct it or add notes. All changes will be seen only by you. Learn more »
save as personal
new!
launch autoscroll
font size
0
reset
how to read this tab
guitar tuner
Autoscroll
slow
fast
+/-
esc
set tempo
stop
INTRO: (las notas que están más separadas, es porque las aguanta más de un tiempo)
------------------------------------------------------------------------------------------
------------------------------------------------------------------------------------------
---------------------4---7------7---4---7---5-------5---4---5---4---5---4---5---------
------------5---7-------------------------------------------------------------------7----
----5---7--------------------------------------------------------------------------------
-----------------------------------------------------------------------------------------

---------------------------------------------------------------------
---------------------------------------------------------------------
-------------------------4-------------------------------------------
---5---7---5---7---5--------5--------------------5-----------------
----------------------------------7---5-------7---------------------
---------------------------------------------------------------------

G            D               C                       G
Entre la cirrosis y la sobredosis andas siempre muñeca
                D                     C                     G
con tu sucia camisa y en lugar de sonrisa una especie de mueca

A  -----0---2--                 
E  --3----------

C              G                   Bm                    Am
¿como no imaginarte? ¿como no recordarte? hace a penas 2 años

A ---0--2--

C                   G                   Bm
cuando eras la princesa de la boca de fresa 
                    F                   D
cuando tenías aún esa forma de hacerme daño.

G             C                 D
Ahora es demasiado tarde princesa
      G             C                 D
Búscate otro perro que te ladre princesa

G                 D                    C                      G
Maldito sea el gurú que levantó entre tú y yo un silencio oscuro
                 D                  C                    G
del que ya sólo sales para decirme vale déjame veinte duros

A  -----0---2--                 
E  --3---------


C                G                    Bm                   Am
ya no te tengo miedo, reina, pero no puedo seguirte en tu viaje 

A ---0--2--

C                 G                  Bm
cuantas veces hubiera dado la vida entera
                 F                     D
porque tu me pidieras llevarte el equipaje

G              C               D
Ahora es demasiado tarde princesa
      G              C                D
Búscate otro perro que te ladre princesa

-----------------------------------------------------------------------------------------------------
-----------------------------------------------------------------------------------------------------
--7---4---7---5-------5---4---5---4---5---4-------------------------------------4----------------
-------------------------------------------------5---7-------5---7---5---7---5-------5------------
--------------------------------------------------------------------------------------------7---5---
----------------------------------------------------------------------------------------------------
(el resto es igual que la intro)

G                    D                     C                      G
Tú que sembraste en todas las islas de la moda las flores de tu gracia
                D                      C                      G
como no ibas a verte envuelta en una muerte con asalto a farmacia

A  -----0---2--                 
E  --3----------

C                  G                     Bm                    Am
¿con que ley condenarte? si somos juez y parte todos de tus andanzas

A ---0--2--

C                G                    Bm                   F                D
sigue con tus movidas reina, pero no pidas que me pase la vida pagándote fianzas.

G              C                D
Ahora es demasiado tarde princesa
     G                          C                            D
Búscate otro perro que te ladre princesa
Suggest correction
Give kudos to tab author, rate the tab!
1 2 3 4 5
comments
print report bad tab
guest
Wanna post a correction for this tab? Suggest correction