Oops, an error
Loading. Please wait.

El Amor Tab

version 1
version 1

Whole song

Interactive

241 views 9 this week
no commentswrite comment
1 2 3 4 5
3 more votes to show rating
add to favorites
launch autoscroll
font size
0
reset
how to read this tab
guitar tuner
Autoscroll
slow
fast
+/-
esc
set tempo
stop
Help us to improve Ultimate-Guitar.com Take our survey!
×
    Dm                                 A7                                   Dm           
e -----5--5-----5--5--5--5^6--5----------5--5----------------------------------------
B ------------------------------------------------8---8--8--8/10--8---6--5--5--6--6--
G --7-------------------------------7--6---------------------------------------------
D -----------------------------------------------------------------------------------
A -----------------------------------------------------------------------------------
E -----------------------------------------------------------------------------------


    A#                  A7    
e -------------------------
B --6--6--6--8^6--5-----5--
G -------------------7-----
D -------------------------
A -------------------------
E -------------------------

    Dm                               A7    
e -------5--5-------------5^6--5--------5--5--
B ------------------5-6-8---------------------
G --6-7---------6-7---------------7--6--------
D --------------------------------------------
A --------------------------------------------
E --------------------------------------------

                           Dm
e ------------------------------------
B ---8---8--8--8/10--8-6-5-6-8-6-5-6--
G ------------------------------------
D ------------------------------------
A ------------------------------------
E ------------------------------------

    A#                           A7
e ----------------------------------
E ----5-6-6^8--6--5-----5^6^5----5--
G --7----------------7--------7-----
D ----------------------------------
A ----------------------------------
E ----------------------------------

Dm
El amor.....
Suggest correction
Give kudos to tab author, rate the tab!
1 2 3 4 5
comments
print report bad tab
guest
You may want to rate the tab now too:
select rating
Wanna post a correction for this tab? Suggest correction