Oops, an error
Loading. Please wait.

El Amor Tab

version 4
version 4

Whole song

Interactive

167 views 1 this week
no commentswrite comment
1 2 3 4 5
3 more votes to show rating
add to favorites
launch autoscroll
font size
0
reset
how to read this tab
guitar tuner
×
Best way to learn
"El Amor"
Autoscroll
slow
fast
+/-
esc
set tempo
stop
Solo: guitarra electrica


||-----------------------------------------------------------------------
||--------------10-12-13--12-10-12-------------------10--10-12-10-10-8---
|o--9---9-11-12-------------------------9-11-9-11-12---------------------
|o-----------------------------------10----------------------------------
||-----------------------------------------------------------------------
||-----------------------------------------------------------------------

-10s12-10-----------------------------
---------13-12-10p8--12s13-12-10------
--------------------------------11-8--
--------------------------------------
--------------------------------------
--------------------------------------


------12-12-----12---15-14-12-14-------15---17--15-14-17-15------------
-12-13-------13---13----------------17---17----------------------------
-----------------------------------------------------------------------
-----------------------------------------------------------------------
-----------------------------------------------------------------------
-----------------------------------------------------------------------

-15-17-15-14-------15-14-12---14--
------------12s13----------16-----
----------------------------------
----------------------------------
----------------------------------
----------------------------------

(esta frase es apagandose la cancion)

-19--19-19--15-17-19--17-15-19p17----14-15-17--15-14-17-15--
------------------------------------------------------------
------------------------------------------------------------
------------------------------------------------------------
------------------------------------------------------------
------------------------------------------------------------


-14h15-14-14h15-----15-14-12---14-||
---------------13-----------16----||
----------------------------------||
----------------------------------||
----------------------------------||
----------------------------------||
Suggest correction
Give kudos to tab author, rate the tab!
1 2 3 4 5
comments
print report bad tab
guest
You may want to rate the tab now too:
select rating
Wanna post a correction for this tab? Suggest correction