Oops, an error
Loading. Please wait.

El Amor Tab

version 3
version 3

Whole song

Interactive

190 views 1 this week
no commentswrite comment
1 2 3 4 5
3 more votes to show rating
add to favorites
launch autoscroll
font size
0
reset
how to read this tab
guitar tuner
×
Best way to learn
"El Amor"
Autoscroll
slow
fast
+/-
esc
set tempo
stop
Intro
PARTE 1
       Dm                A7                        Dm                A7
E ---5-5---5-5-5-6-5-5-----5-5-------5----------------------------------
B ---------------------7-6----------------------------------------------
G -7---------------------------8-8-8---8-8-5-5-h-6-6---6-6-6-8-6-5---5--
D -----------------------------------------------------------------7----
A ----------------------------------------------------------------------
E ----------------------------------------------------------------------

PARTE 2
       Dm                     A7                      Dm Gm                       A7
E ---5-5----------6-5-5-----5-5-------6--------------------------5--------------------
B ----------5-6-8---------------8-8-8---8-6-5-6-8-6-5-6----5-6-8---8-6-5---5-6-5---5--
G -7------7-------------7-6------------------------------7---------------7-------7----
D -------7----------------------------------------------------------------------------
A ------------------------------------------------------------------------------------
E ------------------------------------------------------------------------------------

   Dm                                 A7
El amor es una gota de agua en un cristal
                        Dm
es un paseo largo sin hablar
        Gm         A7
es una fruta para dos . . .

    Dm            D7                 Gm
El amor es un espacio donde no hay lugar
                            Dm
para otra cosa que nos sea amar
  A7               Dm
es algo entre tu y yo . . .

Dm                                  Gm
El amor es llorar cuando nos dice adiós
             C7                 F
el amor es soñar oyendo una canción
             A7                 Dm
el amor es besar poniendo el corazón
              A7-9                 A7
es perdonarme tu y es comprenderte yo;
            Dm                     Gm
el amor es parar el tiempo en un reloj
              C7                     F
es buscar un lugar donde escuchar tu voz
            A7                       Dm
el amor es crear un mundo entre los dos
              A7                Dm
es perdonarme tu y comprenderte yo.

(Aquí se toca un puente como la segunda parte de la intro)

Dm                              A7
El amor es una boca con sabor a miel
                       Dm
es una lluvia en el atardecer
         Gm          A7
es un paragüas para dos . . .

(Se repiten las estrofaas 2 y 3)

(Aqui se toca un requinto con guitarrra eléctrica distorsionada)

E ----------------------------------------------------8-10-8--------------------12----13-12--
B ----------8-10-11-10-8-10-10-10-10-10-10-11-8-10-11--------11-10-11-10-8-10------15-15-----
G -7-7-9-10----------------------------------------------------------------------------------
D -------------------------------------------------------------------------------------------
A -------------------------------------------------------------------------------------------
E -------------------------------------------------------------------------------------------

E -12-12-12-12-12-12-12-12-13-15-13-12-12-13-15-13-12-12-13-12----13----------15--------------
B -------------------------------------------------------------15----15-17-18-----------------
G --------------------------------------------------------------------------------------------
D --------------------------------------------------------------------------------------------
A --------------------------------------------------------------------------------------------
E --------------------------------------------------------------------------------------------

E -17-17-17-17-17-15----------17-17-17-17-17---17-18-20-20-18-17-17-18-17----17---------------
B -------------------18-15-14---------------------------------------------20------------------
G --------------------------------------------------------------------------------------------
D---------------------------------------------------------------------------------------------
A --------------------------------------------------------------------------------------------
E --------------------------------------------------------------------------------------------
Suggest correction
Give kudos to tab author, rate the tab!
1 2 3 4 5
comments
print report bad tab
guest
You may want to rate the tab now too:
select rating
Wanna post a correction for this tab? Suggest correction