Oops, an error
Loading. Please wait.

Que Canten Los Niños Tab

82 views 1 this week
no commentswrite comment
1 2 3 4 5
3 more votes to show rating
add to favorites
launch autoscroll
font size
0
reset
how to read this tab
guitar tuner
×
Best way to learn
"Que Canten Los Niños"
Autoscroll
slow
fast
+/-
esc
set tempo
stop
e------1-1-1--3-5-5-3-5-3-5-3---------------------
B--1-1--------------------------------------------
G-------------------------------------------------
D-------------------------------------------------
A-------------------------------------------------
E-------------------------------------------------

e----------3-3------------------------------------
B-1-1--5--------5-3-1-----------------------------
G-------------------------------------------------
D-------------------------------------------------
A-------------------------------------------------
E-------------------------------------------------

e-------1-1-1--3-5---7----------------------------
B--1-1-------------2---3--------------------------
G-------------------------------------------------
D-------------------------------------------------
A-------------------------------------------------
E-------------------------------------------------

e------1-1-1---3-5-3------------------------------
B--1-1--------------------------------------------
G-------------------------------------------------
D-------------------------------------------------
A-------------------------------------------------
E-------------------------------------------------

e-----5-5-5-5-5-5-3-5-----1-----------------------
B--1-------------------1--------------------------
G-------------------------------------------------
D-------------------------------------------------
A-------------------------------------------------
E-------------------------------------------------

e----0-0-0-0-0-0-0-1-5----------------------------
B--1-------------------2--------------------------
G-------------------------------------------------
D-------------------------------------------------
A-------------------------------------------------
E-------------------------------------------------

e----3-3-3-3-3-3-3-3-1-5--------------------------
B-1-----------------------------------------------
G-------------------------------------------------
D-------------------------------------------------
A-------------------------------------------------
E-------------------------------------------------

e----7-7-7-7-7-7-7-5-1-3--------------------------
B-1-----------------------------------------------
G-------------------------------------------------
D-------------------------------------------------
A-------------------------------------------------
E-------------------------------------------------
Suggest correction
Give kudos to tab author, rate the tab!
1 2 3 4 5
comments
print report bad tab
guest
You may want to rate the tab now too:
select rating
Wanna post a correction for this tab? Suggest correction