Oops, an error
Loading. Please wait.

Se Olvidó bass

version 1
version 1

Whole song

Interactive

48 views 1 this week
no commentswrite comment
1 2 3 4 5
3 more votes to show rating
add to favorites
×
Save as Personal and add changes to this tab that will be seen only by you. Learn more ›
×
You can save this tab as Personal to edit and correct it or add notes. All changes will be seen only by you. Learn more »
launch autoscroll
font size
0
reset
guitar tuner
backing track
0:00
0:00
edit
Autoscroll
slow
fast
+/-
esc
set tempo
stop
     S S S S S S S S S S S S S S S S
G||----------------------------------|
D||----------------------------------|
A||--7-7-7-7-7-7-7-7-7-7-7-7-7-7-7-7-|
E||----------------------------------|

ALEJANDRO S. M. LAUYOLA
EL PANDRO
  S S S S S S S S S S S S S S S S
----------------------------------|
----------------------------------|
--7-7-7-7-7-7-7-7-7-7-7-7-7-7-7-7-|
----------------------------------|


  S S S S S S S S S S S S S S S S
----------------------------------|
----------------------------------|
--7-7-7-7-7-7-7-7-7-7-7-7-7-7-7-7-|
----------------------------------|


  S S S S S S S S S S S S S S S S
----------------------------------|
----------------------------------|
--7-7-7-7-7-7-7-7-7-7-7-7-7-7-7-7-|
----------------------------------|


   S  S  S  S  S  S  S  S  S  S  S  S  S  S
---------------------------------------------
---------------------------------------------
--10-10-10-10-10-10-10-10-10-10-10-10-10-10-1
---------------------------------------------


   S  S  S  S  S  S  S  S  S  S  S  S  S  S
---------------------------------------------
---------------------------------------------
--10-10-10-10-10-10-10-10-10-10-10-10-10-10-1
---------------------------------------------


   S  S  S  S  S  S  S  S  S  S  S  S  S  S
---------------------------------------------
---------------------------------------------
--12-12-12-12-12-12-12-12-12-12-12-12-12-12-1
---------------------------------------------


   S  S  S  S  S  S  S  S  S  S  S  S  S  S
---------------------------------------------
---------------------------------------------
--14-14-14-14-14-14-14-14-14-14-14-14-14-14-1
---------------------------------------------


  S S S S S S S S  S  S  S  S S S S S
--------------------------------------|
------------------------------7-7-7-7-|
--7-7-7-7-9-9-9-9-10-10-10-10---------|
--------------------------------------|


  S S S S S S S S  S  S  S  S S S S S
--------------------------------------|
------------------------------7-7-7-7-|
--7-7-7-7-9-9-9-9-10-10-10-10---------|
--------------------------------------|


  S S S S S S S S  S  S  S  S S S S S
--------------------------------------|
------------------------------7-7-7-7-|
--7-7-7-7-9-9-9-9-10-10-10-10---------|
--------------------------------------|


  S S S S S S S S  S  S  S  S S S S S
--------------------------------------|
------------------------------7-7-7-7-|
--7-7-7-7-9-9-9-9-10-10-10-10---------|
--------------------------------------|


  Q    Q    Q    Q
----------------------|
-------5----4----0----|
--3-------------------|
----------------------|


  Q    Q    Q    Q
----------------------|
-------5----4----0----|
--3-------------------|
----------------------|


  S S S S S S S S  S  S  S  S S S S S
--------------------------------------|
------------------------------7-7-7-7-|
--7-7-7-7-9-9-9-9-10-10-10-10---------|
--------------------------------------|


  S S S S S S S S  S  S  S  S S S S S
--------------------------------------|
------------------------------7-7-7-7-|
--7-7-7-7-9-9-9-9-10-10-10-10---------|
--------------------------------------|


  S S S S S S S S  S  S  S  S S S S S
--------------------------------------|
------------------------------7-7-7-7-|
--7-7-7-7-9-9-9-9-10-10-10-10---------|
--------------------------------------|


  S S S S S S S S  S  S  S  S S S S S
--------------------------------------|
------------------------------7-7-7-7-|
--7-7-7-7-9-9-9-9-10-10-10-10---------|
--------------------------------------|


  Q    Q    Q    Q
----------------------|
-------5----4----0----|
--3-------------------|
----------------------|


  Q    Q    Q    Q
----------------------|
-------5----4----0----|
--3-------------------|
----------------------|


  S S S S S S S S S S S S S S S S
----------------------------------|
----------------------------------|
--7-7-7-7-7-7-7-7-7-7-7-7-7-7-7-7-|
----------------------------------|


  S S S S S S S S S S S S S S S S
----------------------------------|
----------------------------------|
--7-7-7-7-7-7-7-7-7-7-7-7-7-7-7-7-|
----------------------------------|


  S S S S S S S S S S S S S S S S
----------------------------------|
----------------------------------|
--7-7-7-7-7-7-7-7-7-7-7-7-7-7-7-7-|
----------------------------------|


  S S S S S S S S S S S S S S S S
----------------------------------|
----------------------------------|
--7-7-7-7-7-7-7-7-7-7-7-7-7-7-7-7-|
----------------------------------|
ALEJANDRO S. M. LAUYOLA

  Q    Q    Q    Q
----------------------|
-------5----4----0----|
--3-------------------|
----------------------|


  Q    Q    Q    Q
----------------------|
-------5----4----0----|
--3-------------------|
----------------------|


  S S S S S S S S S S S S S S S S
----------------------------------|
----------------------------------|
--7-7-7-7-7-7-7-7-7-7-7-7-7-7-7-7-|
----------------------------------|


  S S S S S S S S S S S S S S S S
----------------------------------|
----------------------------------|
--7-7-7-7-7-7-7-7-7-7-7-7-7-7-7-7-|
----------------------------------|


  S S S S S S S S S S S S S S S S
----------------------------------|
----------------------------------|
--7-7-7-7-7-7-7-7-7-7-7-7-7-7-7-7-|
----------------------------------|


  S S S S S S S S S S S S S S S S
----------------------------------|
----------------------------------|
--7-7-7-7-7-7-7-7-7-7-7-7-7-7-7-7-|
----------------------------------|


  Q    Q    Q    Q
----------------------|
-------5----4----0----|
--3-------------------|
----------------------|


  Q    Q    Q    Q
----------------------|
-------5----4----0----|
--3-------------------|
----------------------|


  Q    Q    Q    Q
----------------------|
----------------------|
--3----3----3----3----|
----------------------|


  Q    Q    Q    Q
----------------------|
----------------------|
--5----5----5----5----|
----------------------|


  Q    Q    Q    Q
----------------------|
----------------------|
----------------------|
--3----3----3----3----|


  Q    Q    Q    Q
----------------------|
----------------------|
--3----3----3----3----|
----------------------|


  Q    Q    Q    Q
----------------------|
----------------------|
--5----5----5----5----|
----------------------|


  Q    Q    Q    Q
----------------------|
----------------------|
--7----7----7----7----|
----------------------|
ALEJANDRO S. M. LAUYOLA

  S S S S S S S S S S S S S S S S
----------------------------------|
----------------------------------|
--0-0-0-0-0-0-0-0-0-0-0-0-0-0-0-0-|
----------------------------------|


  S S S S S S S S S S S S S S S S
----------------------------------|
----------------------------------|
--2-2-2-2-2-2-2-2-2-2-2-2-2-2-2-2-|
----------------------------------|


  S S S S S S S S S S S S S S S S
----------------------------------|
----------------------------------|
--3-3-3-3-3-3-3-3-3-3-3-3-3-3-3-3-|
----------------------------------|


  E  E  E  E  E  E  E  E
--------------------------|-----|
--------------------------|-----|
--5--5--5--5--5--5--5--5--|-----|
--------------------------|-----|


  S S S S S S S S  S  S  S  S S S S S
--------------------------------------|
------------------------------7-7-7-7-|
--7-7-7-7-9-9-9-9-10-10-10-10---------|
--------------------------------------|


  S S S S S S S S  S  S  S  S S S S S
--------------------------------------|
------------------------------7-7-7-7-|
--7-7-7-7-9-9-9-9-10-10-10-10---------|
--------------------------------------|


  S S S S S S S S  S  S  S  S S S S S
--------------------------------------|
------------------------------7-7-7-7-|
--7-7-7-7-9-9-9-9-10-10-10-10---------|
--------------------------------------|


  S S S S S S S S  S  S  S  S S S S S
--------------------------------------|
------------------------------7-7-7-7-|
--7-7-7-7-9-9-9-9-10-10-10-10---------|
--------------------------------------|


  Q    Q    Q    Q
----------------------|
-------5----4----0----|
--3-------------------|
----------------------|


  Q    Q    Q    Q
----------------------|
-------5----4----0----|
--3-------------------|
----------------------|


  S S S S S S S S  S  S  S  S S S S S
--------------------------------------|
------------------------------7-7-7-7-|
--7-7-7-7-9-9-9-9-10-10-10-10---------|
--------------------------------------|


  S S S S S S S S  S  S  S  S S S S S
--------------------------------------|
------------------------------7-7-7-7-|
--7-7-7-7-9-9-9-9-10-10-10-10---------|
--------------------------------------|


  S S S S S S S S  S  S  S  S S S S S
--------------------------------------|
------------------------------7-7-7-7-|
--7-7-7-7-9-9-9-9-10-10-10-10---------|
--------------------------------------|


  S S S S S S S S  S  S  S  S S S S S
--------------------------------------|
------------------------------7-7-7-7-|
--7-7-7-7-9-9-9-9-10-10-10-10---------|
--------------------------------------|


  Q    Q    Q    Q
----------------------|
-------5----4----0----|
--3-------------------|
----------------------|


  Q    Q    Q    Q
----------------------|
-------5----4----0----|
--3-------------------|
----------------------|


  S S S S S S S S S S S S S S S S
----------------------------------|
----------------------------------|
--7-7-7-7-7-7-7-7-7-7-7-7-7-7-7-7-|
----------------------------------|


  S S S S S S S S S S S S S S S S
----------------------------------|
----------------------------------|
--7-7-7-7-7-7-7-7-7-7-7-7-7-7-7-7-|
----------------------------------|


  S S S S S S S S S S S S S S S S
----------------------------------|
----------------------------------|
--7-7-7-7-7-7-7-7-7-7-7-7-7-7-7-7-|
----------------------------------|


  S S S S S S S S S S S S S S S S
----------------------------------|
----------------------------------|
--7-7-7-7-7-7-7-7-7-7-7-7-7-7-7-7-|
----------------------------------|


  Q    Q    Q    Q
----------------------|
-------5----4----0----|
--3-------------------|
----------------------|


  Q    Q    Q    Q
----------------------|
-------5----4----0----|
--3-------------------|
----------------------|


  S S S S S S S S S S S S S S S S
----------------------------------|
----------------------------------|
--7-7-7-7-7-7-7-7-7-7-7-7-7-7-7-7-|
----------------------------------|


  S S S S S S S S S S S S S S S S
----------------------------------|
----------------------------------|
--7-7-7-7-7-7-7-7-7-7-7-7-7-7-7-7-|
----------------------------------|


  S S S S S S S S S S S S S S S S
----------------------------------|
----------------------------------|
--7-7-7-7-7-7-7-7-7-7-7-7-7-7-7-7-|
----------------------------------|


  S S S S S S S S S S S S S S S S
----------------------------------|
----------------------------------|
--7-7-7-7-7-7-7-7-7-7-7-7-7-7-7-7-|
----------------------------------|


  Q    Q    Q    Q
----------------------|
-------5----4----0----|
--3-------------------|
----------------------|


  Q    Q    Q    Q
----------------------|
-------5----4----0----|
--3-------------------|
----------------------|


  Q    Q    Q    Q
----------------------|
----------------------|
--3----3----3----3----|
----------------------|


  Q    Q    Q    Q
----------------------|
----------------------|
--5----5----5----5----|
----------------------|


  Q    Q    Q    Q
----------------------|
----------------------|
----------------------|
--3----3----3----3----|


  Q    Q    Q    Q
----------------------|
----------------------|
--3----3----3----3----|
----------------------|


  Q    Q    Q    Q
----------------------|
----------------------|
--5----5----5----5----|
----------------------|


  Q    Q    Q    Q
----------------------|
----------------------|
--7----7----7----7----|
----------------------|


  S S S S S S S S S S S S S S S S
----------------------------------|
----------------------------------|
--0-0-0-0-0-0-0-0-0-0-0-0-0-0-0-0-|
----------------------------------|


  S S S S S S S S S S S S S S S S
----------------------------------|
----------------------------------|
--2-2-2-2-2-2-2-2-2-2-2-2-2-2-2-2-|
----------------------------------|


  S S S S S S S S S S S S S S S S
----------------------------------|
----------------------------------|
--3-3-3-3-3-3-3-3-3-3-3-3-3-3-3-3-|
----------------------------------|


  E  E  E  E  E  E  E  E
--------------------------|-----|
--------------------------|-----|
--5--5--5--5--5--5--5--5--|-----|
--------------------------|-----|


  Q    Q    Q    Q
----------------------|
----------------------|
----------------------|
--0----0----0----0----|


  Q    Q    Q    Q
----------------------|
----------------------|
--5----5----5----5----|
----------------------|


  Q    Q    Q    Q
----------------------|
----------------------|
--3----3----3----3----|
----------------------|

ALEJANDRO S. M. LAUYOLA
  Q    Q    Q    Q
----------------------|
----------------------|
----------------------|
--5----5----5----5----|

ALEJANDRO S. M. LAUYOLA
  Q    Q    Q    Q
----------------------|
----------------------|
----------------------|
--0----0----0----0----|


  Q    Q    Q    Q
----------------------|
----------------------|
--5----5----5----5----|
----------------------|


  Q    Q    Q    Q
----------------------|
----------------------|
--7----7----7----7----|
----------------------|


  Q    Q    Q    Q
----------------------|
----------------------|
--3----3----3----3----|
----------------------|


  S S S S S S S S S S S S S S S S
----------------------------------|
----------------------------------|
--7-7-7-7-7-7-7-7-7-7-7-7-7-7-7-7-|
----------------------------------|


  S S S S S S S S S S S S S S S S
----------------------------------|
----------------------------------|
--7-7-7-7-7-7-7-7-7-7-7-7-7-7-7-7-|
----------------------------------|


  Q    Q    Q    Q
----------------------|
----------------------|
----------------------|
--0----0----0----0----|


  Q    Q    Q    Q
----------------------|
----------------------|
--5----5----5----5----|
----------------------|


  Q    Q    Q    Q
----------------------|
----------------------|
--3----3----3----3----|
----------------------|


  Q    Q    Q    Q
----------------------|
----------------------|
----------------------|
--5----5----5----5----|


  Q    Q    Q    Q
----------------------|
----------------------|
----------------------|
--0----0----0----0----|


  Q    Q    Q    Q
----------------------|
----------------------|
--5----5----5----5----|
----------------------|


  Q    Q    Q    Q
----------------------|
----------------------|
--7----7----7----7----|
----------------------|


  Q    Q    Q    Q
----------------------|
----------------------|
--3----3----3----3----|
----------------------|


  S S S S S S S S S S S S S S S S
----------------------------------|
----------------------------------|
--7-7-7-7-7-7-7-7-7-7-7-7-7-7-7-7-|
----------------------------------|


  S S S S S S S S S S S S S S S S
----------------------------------|
----------------------------------|
--7-7-7-7-7-7-7-7-7-7-7-7-7-7-7-7-|
----------------------------------|


   S  S  S  S  S  S  S  S  S  S  S  S  S  S
---------------------------------------------
---------------------------------------------
--10-10-10-10-10-10-10-10-10-10-10-10-10-10-1
---------------------------------------------


   S  S  S  S  S  S  S  S  S  S  S  S  S  S
---------------------------------------------
---------------------------------------------
--10-10-10-10-10-10-10-10-10-10-10-10-10-10-1
---------------------------------------------


   S  S  S  S  S  S  S  S  S  S  S  S  S  S
---------------------------------------------
--17-16-14----17-16-14----17-16-14----17-16-1
-----------15----------15----------15--------
---------------------------------------------


   S  S  S  S  S  S  S  S  S  S  S  S  S  S
---------------------------------------------
--17-16-14----17-16-14----17-16-14----17-16-1
-----------15----------15----------15--------
---------------------------------------------


   S  S  S  S  S  S  S  S  S  S  S  S  S  S
---------------------------------------------
--16-14-12----16-14-12----16-14-12----16-14-1
-----------14----------14----------14--------
---------------------------------------------


   S  S  S  S  S  S  S  S  S  S  S  S  S  S
---------------------------------------------
--16-14-12----16-14-12----16-14-12----16-14-1
-----------14----------14----------14--------
---------------------------------------------


   S  S  S  S  S  S  S  S  S  S  S  S  S  S
---------------------------------------------
--19-17-16----19-17-16----19-17-16----19-17-1
-----------17----------17----------17--------
---------------------------------------------


   S  S  S  S  S  S  S  S  S  S  S  S  S  S
---------------------------------------------
--19-17-16----19-17-16----19-17-16----19-17-1
-----------17----------17----------17--------
---------------------------------------------


   S  S  S  S  S  S  S  S  S  S  S  S  S  S
---------------------------------------------
--17-16-14----17-16-14----17-16-14----17-16-1
-----------15----------15----------15--------
---------------------------------------------


   S  S  S  S  S  S  S  S  S  S  S  S  S  S
---------------------------------------------
--17-16-14----17-16-14----17-16-14----17-16-1
-----------15----------15----------15--------
---------------------------------------------


   S  S  S  S  S  S  S  S  S  S  S  S  S  S
---------------------------------------------
--16-14-12----16-14-12----16-14-12----16-14-1
-----------14----------14----------14--------
---------------------------------------------


   S  S  S  S  S  S  S  S  S  S  S  S  S  S
---------------------------------------------
--16-14-12----16-14-12----16-14-12----16-14-1
-----------14----------14----------14--------
---------------------------------------------


  |--3--|  |--3--|  |--3--|  |--3--|
  E  E  E  E  E  E  E  E  E  E  E  E
--------------------------------------|
--------------------------------------|
--------------------------------------|
--3--3--3--3--3--3--3--3--3--3--3--3--|


  |--3--|  |--3--|  |--3--|  |--3--|
  E  E  E  E  E  E  E  E  E  E  E  E
--------------------------------------|
--------------------------------------|
--------------------------------------|
--3--3--3--3--3--3--3--3--3--3--3--3--|


  |--3--|  |--3--|  |--3--|  |--3--|
  E  E  E  E  E  E  E  E  E  E  E  E
--------------------------------------|
--------------------------------------|
--------------------------------------|
--3--3--3--3--3--3--3--3--3--3--3--3--|


  |--3--|  |--3--|  |--3--|  |--3--|
  E  E  E  E  E  E  E  E  E  E  E  E
--------------------------------------|
--------------------------------------|
--------------------------------------|
--3--3--3--3--3--3--3--3--3--3--3--3--|


  |--3--|  |--3--|  |--3--|  |--3--|
  E  E  E  E  E  E  E  E  E  E  E  E
--------------------------------------|
--------------------------------------|
--------------------------------------|
--3--3--3--3--3--3--3--3--3--3--3--3--|


  |--3--|  |--3--|  |--3--|  |--3--|
  E  E  E  E  E  E  E  E  E  E  E  E
--------------------------------------|
--------------------------------------|
--------------------------------------|
--3--3--3--3--3--3--3--3--3--3--3--3--|


  |--3--|  |--3--|  |--3--|  |--3--|
  E  E  E  E  E  E  E  E  E  E  E  E
--------------------------------------|
--------------------------------------|
--------------------------------------|
--3--3--3--3--3--3--3--3--3--3--3--3--|


  |--3--|  |--3--|  |--3--|  |--3--|
  E  E  E  E  E  E  E  E  E  E  E  E
--------------------------------------|
--------------------------------------|
--------------------------------------|
--3--3--3--3--3--3--3--3--3--3--3--3--|


  S S S S S S S S S S S S S S S S
----------------------------------|
----------------------------------|
----------------------------------|
--3-3-3-3-3-3-3-3-3-3-3-3-3-3-3-3-|


  S S S S S S S S S S S S S S S S
----------------------------------|
----------------------------------|
----------------------------------|
--6-6-6-6-6-6-6-6-6-6-6-6-6-6-6-6-|


  S S S S S S S S S S S S S S S S
----------------------------------|
----------------------------------|
----------------------------------|
--3-3-3-3-3-3-3-3-3-3-3-3-3-3-3-3-|


  S S S S S S S S S S S S S S S S
----------------------------------|
----------------------------------|
----------------------------------|
--6-6-6-6-6-6-6-6-6-6-6-6-6-6-6-6-|


  |--3--|  |--3--|  |--3--|  |--3--|
  E  E  E  E  E  E  E  E  E  E  E  E
--------------------------------------|
--------------------------------------|
--------------------------------------|
--3--3--3--3--3--3--3--3--3--3--3--3--|

ALEJANDRO S. M. LAUYOLA
  |--3--|  |--3--|  |--3--|  |--3--|
  E  E  E  E  E  E  E  E  E  E  E  E
--------------------------------------|
--------------------------------------|
--------------------------------------|
--6--6--6--6--6--6--6--6--6--6--6--6--|


  |--3--|  |--3--|  |--3--|  |--3--|
  E  E  E  E  E  E  E  E  E  E  E  E
--------------------------------------|
--------------------------------------|
--------------------------------------|
--3--3--3--3--3--3--3--3--3--3--3--3--|


  |--3--|  |--3--|  |--3--|  |--3--|
  E  E  E  E  E  E  E  E  E  E  E  E
--------------------------------------|
--------------------------------------|
--------------------------------------|
--1--1--1--1--1--1--1--1--1--1--1--1--|


  |--3--|  |--3--|  |--3--|  |--3--|
  E  E  E  E  E  E  E  E  E  E  E  E
--------------------------------------|
--------------------------------------|
--------------------------------------|
--3--3--3--3--3--3--3--3--3--3--3--3--|


  |--3--|  |--3--|  |--3--|  |--3--|
  E  E  E  E  E  E  E  E  E  E  E  E
--------------------------------------|
--------------------------------------|
--------------------------------------|
--3--3--3--3--3--3--3--3--3--3--3--3--|


  |--3--|  |--3--|  |--3--|  |--3--|
  E  E  E  E  E  E  E  E  E  E  E  E
--------------------------------------|
--------------------------------------|
--------------------------------------|
--6--6--6--6--6--6--6--6--6--6--6--6--|


  |--3--|  |--3--|  |--3--|  |--3--|
  E  E  E  E  E  E  E  E  E  E  E  E
--------------------------------------|
--------------------------------------|
--------------------------------------|
--6--6--6--6--6--6--6--6--6--6--6--6--|


  S S S S S S S S S S S S S S S S
----------------------------------|
----------------------------------|
----------------------------------|
--8-8-8-8-8-8-8-8-8-8-8-8-8-8-8-8-|


   S  S  S  S  S  S  S  S  S  S  S  S  S  S
---------------------------------------------
---------------------------------------------
---------------------------------------------
--10-10-10-10-10-10-10-10-10-10-10-10-10-10-1


   S  S  S  S  S  S  S  S  S  S  S  S  S  S
---------------------------------------------
---------------------------------------------
---------------------------------------------
--13-13-13-13-13-13-13-13-13-13-13-13-13-13-1


   S  S  S  S  S  S  S  S  S  S  S  S  S  S
---------------------------------------------
---------------------------------------------
---------------------------------------------
--15-15-15-15-15-15-15-15-15-15-15-15-15-15-1


  S S S S S S S S  S  S  S  S S S S S
--------------------------------------|
------------------------------7-7-7-7-|
--7-7-7-7-9-9-9-9-10-10-10-10---------|
--------------------------------------|


  S S S S S S S S  S  S  S  S S S S S
--------------------------------------|
------------------------------7-7-7-7-|
--7-7-7-7-9-9-9-9-10-10-10-10---------|
--------------------------------------|


  S S S S S S S S  S  S  S  S S S S S
--------------------------------------|
------------------------------7-7-7-7-|
--7-7-7-7-9-9-9-9-10-10-10-10---------|
--------------------------------------|


  S S S S S S S S  S  S  S  S S S S S
--------------------------------------|
------------------------------7-7-7-7-|
--7-7-7-7-9-9-9-9-10-10-10-10---------|
--------------------------------------|


  Q    Q    Q    Q
----------------------|
-------5----4----0----|
--3-------------------|
----------------------|


  Q    Q    Q    Q
----------------------|
-------5----4----0----|
--3-------------------|
----------------------|


  S S S S S S S S  S  S  S  S S S S S
--------------------------------------|
------------------------------7-7-7-7-|
--7-7-7-7-9-9-9-9-10-10-10-10---------|
--------------------------------------|


  S S S S S S S S  S  S  S  S S S S S
--------------------------------------|
------------------------------7-7-7-7-|
--7-7-7-7-9-9-9-9-10-10-10-10---------|
--------------------------------------|


  S S S S S S S S  S  S  S  S S S S S
--------------------------------------|
------------------------------7-7-7-7-|
--7-7-7-7-9-9-9-9-10-10-10-10---------|
--------------------------------------|


  S S S S S S S S  S  S  S  S S S S S
--------------------------------------|
------------------------------7-7-7-7-|
--7-7-7-7-9-9-9-9-10-10-10-10---------|
--------------------------------------|


  Q    Q    Q    Q
----------------------|
-------5----4----0----|
--3-------------------|
----------------------|


  Q    Q    Q    Q
----------------------|
-------5----4----0----|
--3-------------------|
----------------------|


  S S S S S S S S S S S S S S S S
----------------------------------|
----------------------------------|
--7-7-7-7-7-7-7-7-7-7-7-7-7-7-7-7-|
----------------------------------|


  S S S S S S S S S S S S S S S S
----------------------------------|
----------------------------------|
--7-7-7-7-7-7-7-7-7-7-7-7-7-7-7-7-|
----------------------------------|


  S S S S S S S S S S S S S S S S
----------------------------------|
----------------------------------|
--7-7-7-7-7-7-7-7-7-7-7-7-7-7-7-7-|
----------------------------------|

ALEJANDRO S. M. LAUYOLA
  S S S S S S S S S S S S S S S S
----------------------------------|
----------------------------------|
--7-7-7-7-7-7-7-7-7-7-7-7-7-7-7-7-|
----------------------------------|


  Q    Q    Q    Q
----------------------|
-------5----4----0----|
--3-------------------|
----------------------|


  Q    Q    Q    Q
----------------------|
-------5----4----0----|
--3-------------------|
----------------------|


  S S S S S S S S S S S S S S S S
----------------------------------|
----------------------------------|
--7-7-7-7-7-7-7-7-7-7-7-7-7-7-7-7-|
----------------------------------|


  S S S S S S S S S S S S S S S S
----------------------------------|
----------------------------------|
--7-7-7-7-7-7-7-7-7-7-7-7-7-7-7-7-|
----------------------------------|


  S S S S S S S S S S S S S S S S
----------------------------------|
----------------------------------|
--7-7-7-7-7-7-7-7-7-7-7-7-7-7-7-7-|
----------------------------------|


  S S S S S S S S S S S S S S S S
----------------------------------|
----------------------------------|
--7-7-7-7-7-7-7-7-7-7-7-7-7-7-7-7-|
----------------------------------|


  Q    Q    Q    Q
----------------------|
-------5----4----0----|
--3-------------------|
----------------------|


  Q    Q    Q    Q
----------------------|
-------5----4----0----|
--3-------------------|
----------------------|


  Q    Q    Q    Q
----------------------|
----------------------|
--3----3----3----3----|
----------------------|


  Q    Q    Q    Q
----------------------|
----------------------|
--5----5----5----5----|
----------------------|


  Q    Q    Q    Q
----------------------|
----------------------|
----------------------|
--3----3----3----3----|


  Q    Q    Q    Q
----------------------|
----------------------|
--3----3----3----3----|
----------------------|


  Q    Q    Q    Q
----------------------|
----------------------|
--5----5----5----5----|
----------------------|


  Q    Q    Q    Q
----------------------|
----------------------|
--7----7----7----7----|
----------------------|


  S S S S S S S S S S S S S S S S
----------------------------------|
----------------------------------|
--0-0-0-0-0-0-0-0-0-0-0-0-0-0-0-0-|
----------------------------------|
ALEJANDRO S. M. LAUYOLA

  S S S S S S S S S S S S S S S S
----------------------------------|
----------------------------------|
--2-2-2-2-2-2-2-2-2-2-2-2-2-2-2-2-|
----------------------------------|


  S S S S S S S S S S S S S S S S
----------------------------------|
----------------------------------|
--3-3-3-3-3-3-3-3-3-3-3-3-3-3-3-3-|
----------------------------------|


  E  E  E  E  E  E  E  E
--------------------------|-----|
--------------------------|-----|
--5--5--5--5--5--5--5--5--|-----|
--------------------------|-----|


  Q    Q    Q    Q
----------------------|
----------------------|
----------------------|
--0----0----0----0----|


  Q    Q    Q    Q
----------------------|
----------------------|
--5----5----5----5----|
----------------------|


  Q    Q    Q    Q
----------------------|
----------------------|
--3----3----3----3----|
----------------------|


  Q    Q    Q    Q
----------------------|
----------------------|
----------------------|
--5----5----5----5----|


  Q    Q    Q    Q
----------------------|
----------------------|
----------------------|
--0----0----0----0----|


  Q    Q    Q    Q
----------------------|
----------------------|
--5----5----5----5----|
----------------------|


  Q    Q    Q    Q
----------------------|
----------------------|
--7----7----7----7----|
----------------------|


  Q    Q    Q    Q
----------------------|
----------------------|
--3----3----3----3----|
----------------------|


  Q    Q    Q    Q
----------------------|
----------------------|
----------------------|
--0----0----0----0----|


  Q    Q    Q    Q
----------------------|
----------------------|
--5----5----5----5----|
----------------------|


  Q    Q    Q    Q
----------------------|
----------------------|
--3----3----3----3----|
----------------------|


  Q    Q    Q    Q
----------------------|
----------------------|
----------------------|
--5----5----5----5----|


  Q    Q    Q    Q
----------------------|
----------------------|
----------------------|
--0----0----0----0----|


  Q    Q    Q    Q
----------------------|
----------------------|
--5----5----5----5----|
----------------------|


  Q    Q    Q    Q
----------------------|
----------------------|
--7----7----7----7----|
----------------------|


  Q    Q    Q    Q
----------------------|
----------------------|
--3----3----3----3----|
----------------------|


  S S S S S S S S S S S S S S S S
----------------------------------|
----------------------------------|
--7-7-7-7-7-7-7-7-7-7-7-7-7-7-7-7-|
----------------------------------|


  S S S S S S S S S S S S S S S S
----------------------------------|
----------------------------------|
--7-7-7-7-7-7-7-7-7-7-7-7-7-7-7-7-|
----------------------------------|
ALEJANDRO S. M. LAUYOLA

   S  S  S  S  S  S  S  S  S  S  S  S  S  S
---------------------------------------------
---------------------------------------------
--10-10-10-10-10-10-10-10-10-10-10-10-10-10-1
---------------------------------------------


   S  S  S  S  S  S  S  S  S  S  S  S  S  S
---------------------------------------------
---------------------------------------------
--10-10-10-10-10-10-10-10-10-10-10-10-10-10-1
---------------------------------------------


   E   E   E   E   E   E   E   E
--------------16------------------|
--14--16--17------17--16--17------|
----------------------------------|
------------------------------12--|


   E   E   E   E   E   E   E   E
--------------16------------------|
--14--16--17------17--16--17------|
----------------------------------|
------------------------------12--|


   E   E   E   E   E   E   E   E
--------------16------------------|
--14--16--17------17--16--17------|
----------------------------------|
------------------------------12--|


   E   E   E   E   E   E   E   E
--------------16------------------|
--14--16--17------17--16--17------|
----------------------------------|
------------------------------12--|


   E   E   E   E   E   E   E   E
--------------16------------------|
--14--16--17------17--16--17------|
----------------------------------|
------------------------------12--|


   E   E   E   E   E   E   E   E
--------------16------------------|
--14--16--17------17--16--17------|
----------------------------------|
------------------------------12--|


   E   E   E   E   E   E   E   E
--------------16------------------|
--14--16--17------17--16--17------|
----------------------------------|
------------------------------12--|


   E   E   E   E   E   E   E   E
--------------16------------------|
--14--16--17------17--16--17------|
----------------------------------|
------------------------------12--|


   E   E   E   E   E   E   E   E
--------------16------------------|
--14--16--17------17--16--17------|
----------------------------------|
------------------------------12--|


   E   E   E   E   E   E   E   E
--------------16------------------|
--14--16--17------17--16--17------|
----------------------------------|
------------------------------12--|


   E   E   E   E   E   E   E   E
--------------16------------------||
--14--16--17------17--16--17------||
----------------------------------||
------------------------------12--||


Duration Legend
---------------
W - whole
H - half
Q - quarter
E - 8th
S - 16th
T - 32nd
X - 64th
. - note dotted
|-n-|  - n-tuplets


Tablature Legend
----------------
L - tied note
x - dead note
g - grace note
(n) - ghost note
> - accentuded note
NH - natural harmonic
AH - artificial harmonic
TH - tapped harmonic
SH - semi harmonic
PH - pitch harmonic
h - hammer on
p - pull off
b - bend
br - bendRelease
pb - preBend
pbr - preBendRelease
brb - bendReleaseBend
n/ - tremolo bar dip
n - tremolo bar dive
-/n - tremolo bar Release up
/n - tremolo bar inverted dip
/n - tremolo bar return
-n - tremolo bar Release down
S - shift slide
s - legato slide
/ -  slide into from below or out of upwards
 -  slide into from above or out of downwards
~ - vibrato
W - wide vibrato
tr - trill
TP - tremolo picking
T - tapping
S - slap
P - pop
< - fade in
^ - brush up
v - brush down

            
            
Suggest correction
Creating personal tab
Creating personal tab
You can edit any tab online and save it as your Personal.

You can edit, replace or remove any tab part or add personal notes – all changes will be seen only by you.

Personal tabs can be accessed anytime from any device, even offline.
Learn more »
Give kudos to tab author, rate the tab!
1 2 3 4 5
comments
print report bad tab
guest
Wanna post a correction for this tab? Suggest correction