Oops, an error
Loading. Please wait.

Como Un Corazón Tab

8 views 1 this week
no commentswrite comment
1 2 3 4 5
3 more votes to show rating
add to favorites
×
Save as Personal and add changes to this tab that will be seen only by you. Learn more ›
×
You can save this tab as Personal to edit and correct it or add notes. All changes will be seen only by you. Learn more »
save as personal
new!
launch autoscroll
font size
0
reset
how to read this tab
guitar tuner
Autoscroll
slow
fast
+/-
esc
set tempo
stop
Esta canción es una versión de 'In the shape of a heart' de Jackson Browne.
Resulta que él y Enrique Urquijo se convirtieron en buenos amigos y a modo
de homenaje Los Secretos versionan esta canción en la que el propio Jackson
Browne canta las partes en inglés.

La canción es bastante fácil de tocar y los solos son bastante sencillos.

Que la disfruteis.


COMO UN CORAZÓN

E:  022100 (Mi)
C#: 446654 (Do#)
A:  002220 (La)
B:  224442 (Si)

      E                  C#                 A       A B       A       A B
E-||--0------------------4------------------0-------0-2-------0-------0-2--------
B-||--0-5-4--------------5-5-4--------------2-------2-4-------2-------2-4--------
G-||--1-----4------------6-----4------------2-------2-4-------2-------2-4--------
D-||--2-------4-6---4----6-------4-6---4----2-------2-4-------2-------2-4--------
A-||--2-----------7------4-----------7------0-------0-2-------0-------0-2--------
E-||--0------------------4------------------0-------0-2-------0-------0-2--------


     E           
Atrapada en su collar
      C#
Una piedra de rubí
     A          A B 
Como un corazón
     A          A B 
Como un corazón
      E
Y ya nunca olvidaré
         C#
Aquella pena, aquel dolor
     A          A B 
Como un corazón
     A          A B 
Como un corazón

      E                  C# 
E-||--0------------------4-----------------
B-||--0-5-4--------------5-5-4-------------
G-||--1-----4------------6-----4-----------
D-||--2-------4-6---4----6-------4-6---4---
A-||--2-----------7------4-----------7-----
E-||--0------------------4-----------------


A  B                A
  I guess I never knew
              B 
What she was talking about
A  B                A
  I guess I never knew
              B 
What she was living without

E 
Me hablas del amor sin darle el menor valor
C#
Buscarás a alguien que te sirva mejor
A              B 
Ser o no ser adicto a algo
A                          B 
Que te acerque a lo que estás soñando

[solo1]
      E                  C#                 A              B          A              B         
E-||--0---4--------------4---4--------------0---4---------------------4---4----------7---------
B-||--0-----5--7---5-----5-----5--7---5-----2-----5--7---5------------5-----5--7---5-----------
G-||--1-4------------4---6-4------------4---2-4------------4----------6-4----------------------
D-||--2------------------6------------------2-------------------------6------------------------
A-||--2------------------4------------------0-------------------------4------------------------
E-||--0------------------4------------------0-------------------------4------------------------


       E
El agujero en la pared
     C#
Parecía una señal
       A           A B
De un puño tal vez
    A             A B
De rabia o desdén
           E
Oh, quién sabe lo que fue
         C#
Que golpeó en la pared
         A         A B
Algún objeto sin querer
        A       A B
Un corazón del revés


E 
Me hablas del amor sin darle el menor valor
C#
Buscarás a alguien que te sirva mejor
A              B 
Ser o no ser adicto a algo
A                          B 
Que te acerque a lo que estás soñando
E 
Me hablas del amor sin darle el menor valor
C#
Buscarás a alguien que te sirva mejor
A              B 
Lucharás         y tratarás
A               B 
De que la vida no te eche atrás
A              B 
No puedes ver    las piezas y fallos que hay
A              B 
Bajo un corazón

      A A             B B                  A A           B B
E-||--0-0-7/9-9--7-------------------------0-0-----------2-2------------
B-||--2-2----------9--7---9----------------2-2-----------4-4------------
G-||--2-2----------------------------------2-2-----------4-4------------
D-||--2-2----------------------------------2-2-----------4-4------------
A-||--0-0----------------------------------0-0-----------2-2------------
E-||--0-0----------------------------------0-0-----------2-2------------
                               Como un corazón  

      A A             B B                  A A           B B
E-||--0-0-7/9-9--7-------------------------0-0-----------2-2------------
B-||--2-2----------9--7---9----------------2-2-----------4-4------------
G-||--2-2----------------------------------2-2-----------4-4------------
D-||--2-2----------------------------------2-2-----------4-4------------
A-||--0-0----------------------------------0-0-----------2-2------------
E-||--0-0----------------------------------0-0-----------2-2------------
                               Como un corazón  


            E
It was the ruby that she wore
       C#
On a stand beside the bed
        A               B 
In the hour before dawn
         A               B 
When I knew she was gone
       E
And I held it in my hand
       C#
For a little while
               A             B 
And dropped it into the wall
          A                  B
I let it go, I heard it fall


E 
Me hablas del amor sin darle el menor valor
C#
Buscarás a alguien que te sirva mejor
A              B 
Ser o no ser adicto a algo
A                          B 
Que te acerque a lo que estás soñando
E 
Me hablas del amor sin darle el menor valor
C#
Buscarás a alguien que te sirva mejor
A              B 
Ser o no ser adicto a algo
A                          B 
Que te acerque a lo que estás soñando

      E                  C#                 
E-||--0---4--------------4---4--------------
B-||--0-----5--7---5-----5-----5--7---5-----
G-||--1-4------------4---6-4------------4---
D-||--2------------------6------------------
A-||--2------------------4------------------
E-||--0------------------4------------------


A  B                A
  I guess I never knew
              B 
What she was talking about

      E                  C#                 
E-||--0---4--------------4---4--------------
B-||--0-----5--7---5-----5-----5--7---5-----
G-||--1-4------------4---6-4------------4---
D-||--2------------------6------------------
A-||--2------------------4------------------
E-||--0------------------4------------------

A  B                A
  I guess I never knew
              B 
What she was living without

      E                  C# 
E-||--0------------------4-----------------
B-||--0-5-4--------------5-5-4-------------
G-||--1-----4------------6-----4-----------
D-||--2-------4-6---4----6-------4-6---4---
A-||--2-----------7------4-----------7-----
E-||--0------------------4-----------------

A  B                A
  I guess I never knew
              B 
What she was talking about

      E                  C# 
E-||--0------------------4-----------------
B-||--0-5-4--------------5-5-4-------------
G-||--1-----4------------6-----4-----------
D-||--2-------4-6---4----6-------4-6---4---
A-||--2-----------7------4-----------7-----
E-||--0------------------4-----------------

A  B                A
  I guess I never knew
              B 
What she was living without


### Tablatura de: Enrique Moraño ###
### Sevilla [España] para ATAME  ###
###     emorano@      ###
Suggest correction
Give kudos to tab author, rate the tab!
1 2 3 4 5
comments
print report bad tab
guest
Wanna post a correction for this tab? Suggest correction