Oops, an error
Loading. Please wait.

Playa Sola tab

143 views 1 this week
no commentswrite comment
1 2 3 4 5
3 more votes to show rating
add to favorites
×
Save as Personal and add changes to this tab that will be seen only by you. Learn more ›
×
You can save this tab as Personal to edit and correct it or add notes. All changes will be seen only by you. Learn more »
launch autoscroll
font size
0
reset
how to read this tab
guitar tuner
edit
Autoscroll
slow
fast
+/-
esc
set tempo
stop
E ----------------------------------------------------
A ----------------------------------------------------
D ----------------------------------------------------
G -6-6-6-8-10-10-1010---8-10-8-6----------------------
B --------------------------------8-88-88-------------
E ----------------------------------------------------

E ----------------------------------------------------
A ----------------------------------------------------
D ----------------------------------------------------
G -8-8-8-10-12---10-12/14-12-10-8-6--10-8-6-----------
B ------------------------------------------10-8-7----
E ----------------------------------------------------

E ----------------------------------------------------
A ----------------------------------------------------
D ----------------------------------------------------
G -6-6-6-8-10-10-1010---8-10-8-6----------------------
B ------------------------------8-88-88---------------
E ----------------------------------------------------

E ----------------------------------------------------
A ----------------------------------------------------
D ----------------------------------------------------
G -8/10-6-8---6-8-6--686-686--686---686/10 6-8-- 8-8--
B ----------8------8----8---8-----8-------------------
E ----------------------------------------------------

G         F#m       Em
A MI playa   nadie viene
       C-D7        G
Estoy solo frente mar
        F#m      Em
MI canoa   MI guitarra
 D7/   G   D7      G   G7
Y una red para pescar

         C  D7        G    E7
Por las noches yo le canto
       Am  D7       G   G7
A LA Abriz y al palmar
      C-D7        G
Y la luna que ilumina
       A7           D
Mi tristeza y mi penar

D7/  G   F#m         Em
Esperando   que se acuerde
       C-D7           G
De mi vida el gran senor
    Cm            G
Y dejar la playa sola
      D7            G
Y reunirme con mi amor

            
            
Suggest correction
Creating personal tab
Creating personal tab
You can edit any tab online and save it as your Personal.

You can edit, replace or remove any tab part or add personal notes – all changes will be seen only by you.

Personal tabs can be accessed anytime from any device, even offline.
Learn more »
Give kudos to tab author, rate the tab!
1 2 3 4 5
comments
print report bad tab
guest
Wanna post a correction for this tab? Suggest correction