Oops, an error
Loading. Please wait.

Bésame Mucho tab

version 3
version 3

Whole song

505 views 1 this week
1 commentread comment
1 2 3 4 5
1 last vote to show rating
add to favorites
×
Save as Personal and add changes to this tab that will be seen only by you. Learn more ›
×
You can save this tab as Personal to edit and correct it or add notes. All changes will be seen only by you. Learn more »
launch autoscroll
font size
0
reset
how to read this tab
guitar tuner
edit
Autoscroll
slow
fast
+/-
esc
set tempo
stop
Author
Difficulty
-------------------------------------------------------------------------------
                             Bésame Mucho - Zoé
-------------------------------------------------------------------------------
Tabbed by: DanielBotero
E-mail: daniel-murillo-botero@hotmail.com

Tuning: Standard - E A D G B E

INTRO

*BASS LINE*

e|--------------|
B|--------------|
G|--------------|
D|--------------|
A|-----7-5---5--|
E|--0------7----|

Guitar 1♦                Guitar 2♦♦

e|--------------|       e|----0-3-2-3-0----0-3-2-3-0----0-3-2-3-0----0-3-2-3-0|
B|--12----------|       B|--0------------0------------1-----------1-----------|
G|--12----------| X8    G|----------------------------------------------------| X4
D|--------------|       D|----------------------------------------------------|
A|--------------|       A|----------------------------------------------------|
E|--------------|       E|----------------------------------------------------|

♦  Cada 4 repeticiones de la línea de bajo
♦♦ A partir de la 3er repetición de la guitarra 1

-------------------------------------------------------------------------------

VERSE

Guitar 2

          Em               Em               Am              ♦Am♦
e|-------0--0-0-0---------0--0-0-0---------0--0-0-0---------0--0-0-0--|
B|-----0-0--0-0-0-------0-0--0-0-0-------1-1--1-1-1-------1-1--1-1-1--|
G|-----0-0--0-0-0-------0-0--0-0-0-------2-2--2-2-2-------2-2--2-2-2--|
D|--2--2-2--2-2-2----2--2-2--2-2-2----2--2-2--2-2-2----2--2-2--2-2-2--|
A|--2--2-2--2-2-2----2--2-2--2-2-2----0--0-0--0-0-0----0--0-0--0-0-0--|
E|--0--0-0--0-0-0----0--0-0--0-0-0----0--0-0--0-0-0----0--0-0--0-0-0--|
    ▲  ▲ ▼  ▼ ▲ ▼    ▲  ▲ ▼  ▼ ▲ ▼    ▲  ▲ ▼  ▼ ▲ ▼    ▲  ▲ ▼  ▼ ▲ ▼

    Am     Am/G    Am/F#      B7          Em               Em
e|-0-0-0---0-0-0---0-0-0------2--------0-0--0-0-0-------0-0--0-0-0----|
B|-1-1-1---1-1-1---1-1-1------0--------0-0--0-0-0-------0-0--0-0-0----|
G|-2-2-2---2-2-2---2-2-2------2--------0-0--0-0-0-------0-0--0-0-0----|
D|-2-2-2---2-2-2---0-0-0------1-----2--2-2--2-2-2----2--2-2--2-2-2----|
A|-0-0-0---0-0-0---0-0-0------2-----2--2-2--2-2-2----2--2-2--2-2-2----|
E|-0-0-0---3-3-3---2-2-2------0-----0--0-0--0-0-0----0--0-0--0-0-0----|
   ▲ ▲ ▼   ▲ ▲ ▼   ▲ ▲ ▼      ▲     ▲  ▲ ▼  ▼ ▲ ▼    ▲  ▲ ▼  ▼ ▲ ▼              
                                                                               }X2
         E7               E7               Am              ♦Am♦
e|------0--0-0-0---------0--0-0-0---------0--0-0-0---------0--0-0-0---|
B|----3-3--3-3-3-------3-3--3-3-3-------1-1--1-1-1-------1-1--1-1-1---|
G|----1-1--1-1-1-------1-1--1-1-1-------2-2--2-2-2-------2-2--2-2-2---|
D|-0--0-0--0-0-0----0--0-0--0-0-0----2--2-2--2-2-2----2--2-2--2-2-2---|
A|-2--2-2--2-2-2----2--2-2--2-2-2----0--0-0--0-0-0----0--0-0--0-0-0---|
E|-0--0-0--0-0-0----0--0-0--0-0-0----0--0-0--0-0-0----0--0-0--0-0-0---|
   ▲  ▲ ▼  ▼ ▲ ▼    ▲  ▲ ▼  ▼ ▲ ▼    ▲  ▲ ▼  ▼ ▲ ▼    ▲  ▲ ▼  ▼ ▲ ▼    

    Em      Em7      C        B7          Em               Em
e|-0-0-0---0-0-0---0-0-0------2----------0--0-0-0---------0--0-0-0----|
B|-0-0-0---3-3-3---1-1-1------0--------0-0--0-0-0-------0-0--0-0-0----|
G|-0-0-0---0-0-0---0-0-0------2--------0-0--0-0-0-------0-0--0-0-0----|
D|-2-2-2---0-0-0---2-2-2------1-----2--2-2--2-2-2----2--2-2--2-2-2----|
A|-2-2-2---2-2-2---3-3-3------2-----2--2-2--2-2-2----2--2-2--2-2-2----|
E|-0-0-0---0-0-0---0-0-0------0-----0--0-0--0-0-0----0--0-0--0-0-0----|
   ▲ ▲ ▼   ▲ ▲ ▼   ▲ ▲ ▼      ▲     ▲  ▲ ▼  ▼ ▲ ▼    ▲  ▲ ▼  ▼ ▲ ▼

Guitar 1

e|------------|
B|--0h1--0h1--|
G|------------| X2♦
D|------------|
A|------------|
E|------------|
                                }X2
e|---------------------|
B|---------------------|
G|---------------------| X1♦♦
D|----------------0-2--|
A|--2-1-2-3-4-3-4------|
E|---------------------|

♦  Cuando la Guitarra 2 toque el ♦Am♦
♦♦ Cuango la Guitarra 2 toque el Em previo al E7 SOLO EN LA SEGUNDA REPETICIÓN

-------------------------------------------------------------------------------

BRIDGE [Guitar 2]


   Am   Em   F#    B7
e|--0----0----2----2--|
B|--1----0----2----0--|
G|--2----0----3----2--|
D|--2----2----4----1--|
A|--0----2----4----2--|
E|--0----0----2----0--|
    ▲    ▲    ▲    ▲

   Am   Em   F#          B7               B7
e|--0----0----2---------2--2-2-2---------2--2-2-2--|
B|--1----0----2-------0-0--0-0-0-------0-0--0-0-0--|
G|--2----0----3-------2-2--2-2-2-------2-2--2-2-2--|
D|--2----2----4----1--1-1--1-1-1----1--2-1--1-1-1--|
A|--0----2----4----2--2-2--2-2-2----2--2-2--2-2-2--|
E|--0----0----2----0--0-0--0-0-0----0--0-0--0-0-0--|
    ▲    ▲    ▲    ▲  ▲ ▼  ▼ ▲ ▼    ▲  ▲ ▼  ▼ ▲ ▼

----------------------------------------------------------------------------------------------

SOLO [Guitar 1]

e|---------------------------------------------------------------------0---------------|
B|---------------------------------------------------------------------0---------------|
G|---------------------------------------------------------------------0---------------| 
D|---------------------------------------------------------------------2---------------|
A|---------------------------2--0-0-----0-0-0-2-2-2-3-3-3-----0-0h2----2---------------|
E|-10\--0--0-0-0---0-0-0-2-3------------------------------3-3----------0---------------|

e|---------------------0-------0-------0-------0-------0--------------------------------------|
B|-----------------------3-------3-------3-------3-------3--0h1-0---------0h1-0---------------|
G|-------------------1-------1-------1-------1-------1------------2-------------2-------------| 
D|---------------0-2-------2-------2-------2-------2-----------------2-2-------------2-2------|
A|-2-1-2-3-4-3-4--------------------------------------------0-------------0-------------------|
E|--------------------------------------------------------------------------------------------|

e|-----------------------------------0--------------------|
B|-----------------------------------0--------------------|
G|-----------------------------------0--------------------| 
D|-----------------------------------2--------------------|
A|--2--------------------------------2---2-1-2-3-4-3-4-5-7|
E|----3--0-3-2--0-3-2--0-2-3--2-0----0--------------------|

----------------------------------------------------------------------------------------------

OUTRO

Guitar 2

         E7               E7               Am              ♦Am♦
e|------0--0-0-0---------0--0-0-0---------0--0-0-0---------0--0-0-0---|
B|----3-3--3-3-3-------3-3--3-3-3-------1-1--1-1-1-------1-1--1-1-1---|
G|----1-1--1-1-1-------1-1--1-1-1-------2-2--2-2-2-------2-2--2-2-2---|
D|-0--0-0--0-0-0----0--0-0--0-0-0----2--2-2--2-2-2----2--2-2--2-2-2---|
A|-2--2-2--2-2-2----2--2-2--2-2-2----0--0-0--0-0-0----0--0-0--0-0-0---|
E|-0--0-0--0-0-0----0--0-0--0-0-0----0--0-0--0-0-0----0--0-0--0-0-0---|
   ▲  ▲ ▼  ▼ ▲ ▼    ▲  ▲ ▼  ▼ ▲ ▼    ▲  ▲ ▼  ▼ ▲ ▼    ▲  ▲ ▼  ▼ ▲ ▼    

    Em      Em7      C        B7          Em               Em
e|-0-0-0---0-0-0---0-0-0------2----------0--0-0-0---------0--0-0-0--|
B|-0-0-0---3-3-3---1-1-1------0--------0-0--0-0-0-------0-0--0-0-0--|
G|-0-0-0---0-0-0---0-0-0------2--------0-0--0-0-0-------0-0--0-0-0--|
D|-2-2-2---0-0-0---2-2-2------1-----2--2-2--2-2-2----2--2-2--2-2-2--|
A|-2-2-2---2-2-2---3-3-3------2-----2--2-2--2-2-2----2--2-2--2-2-2--|
E|-0-0-0---0-0-0---0-0-0------0-----0--0-0--0-0-0----0--0-0--0-0-0--|
   ▲ ▲ ▼   ▲ ▲ ▼   ▲ ▲ ▼      ▲     ▲  ▲ ▼  ▼ ▲ ▼    ▲  ▲ ▼  ▼ ▲ ▼

  Em    Em7    C      B7         Em
e|-0-----0-----0------2----------0--|
B|-0-----3-----1------0----------0--|
G|-0-----0-----0------2----------0--|
D|-2-----0-----2------1----------2--|
A|-2-----2-----3------2----------2--|
E|-0-----0-----0------0-----3----0--|
   ▲     ▲     ▲      ▲          ▲

Guitar 1

e|------------|
B|--0h1--0h1--|
G|------------| X1♦
D|------------|
A|------------|
E|------------|

♦  Cuando la Guitarra 2 toque el ♦Am♦

************CONVENCIONES************                  *************ESTRUCTURA*************

| ▲/▼ Orientación del Rasgueo                         | INTRO
                                                      | VERSE
| h   Hammer-on                                       | BRIDGE
                                                      | INTRO♦
| \   Slide                                           | VERSE
                                                      | SOLO
| ♦   Indicaciones Adicionales                        | OUTRO
                              
| Guitar 1: Lead Guitar                               ♦ La guitarra 1 reemplaza a la Guitarra 2 
                                                         y entra al terminar el bridge
| Guitar 2: Rhytm Guitar                        
************************************                  ************************************

Especial agradecimiento a christianvib por algunos acordes.  

            
            
Suggest correction
Creating personal tab
Creating personal tab
You can edit any tab online and save it as your Personal.

You can edit, replace or remove any tab part or add personal notes – all changes will be seen only by you.

Personal tabs can be accessed anytime from any device, even offline.
Learn more »
Give kudos to tab author, rate the tab!
1 2 3 4 5
comments
print report bad tab
1 comment total.
0 reply
jmaldo05 10 Feb 08, 2016 11:19 AM

Perfecta, aunque seria bueno que repitieras los versos en su orden para los que usamos autoscroll.

guest
You may want to rate the tab now too:
select rating
Wanna post a correction for this tab? Suggest correction