Oops, an error
Loading. Please wait.

Hän On Yhä Hän tab

40 views 1 this week
no commentswrite comment
1 2 3 4 5
2 more votes to show rating
add to favorites
×
Save as Personal and add changes to this tab that will be seen only by you. Learn more ›
×
You can save this tab as Personal to edit and correct it or add notes. All changes will be seen only by you. Learn more »
launch autoscroll
font size
0
reset
how to read this tab
guitar tuner
edit
Autoscroll
slow
fast
+/-
esc
set tempo
stop
Author
Difficulty
Artist: Kolmas Nainen
Album: Me ollaan ne
Song: Hän on yhä hän

Tuning: EADGBe (Standard)

[Intro] x2  (Two last harmonics only on repeat)
(Guitar 1)                                        
   1  &  2  &  3  &  4  &  | 1  &  2  &  3  &  4  &  | 1  &  2  &  3  &  4  &  | 1  &  2  &  3  &  4  &   |
e|-------------------------|-------------------------|-------------------------|--------------------------|
B|------<12>---------------|-------------------------|------<12>---------------|----------------------<7>-|
G|-------------------------|-------------------------|-------------------------|<7>----------------<5>----|
D|---------------<7>-------|-------------------------|---------------<7>-------|--------------------------|
A|-------------------------|<7>----------------------|-------------------------|--------------------------|
E|-------------------------|-------------------------|-------------------------|--------------------------|

(Guitar 2)
   1  &  2  &  3  &  4  &  | 1  &  2  &  3  &  4  &  | 1  &  2  &  3  &  4  &  | 1  &  2  &  3  &  4  &  | 
e|-------------------------|-------------------------|-------3~-------3~-------|-------3~-------3~-------|
B|-------------------------|-------------------------|-------3~-------3~-------|-------3~-------3~-------|
G|-------------------------|-------------------------|-------4~-------4~-------|-------4~-------4~-------|
D|-------4--------4~~------|-------4--------4~~------|-------5~-------5~-------|-------5~-------5~-------|
A|----5--------5-----------|----5--------5-----------|----5--------------------|-------------------------|
E|-7--------7--------------|-5--------5--------------|-3-----------------------|-------------------------|

[Verse 1] (Guitar 2 plays the intro riff)
   1  &  2  &  3  &  4  &  | 1  &  2  &  3  &  4  &  | 1  &  2  &  3  &  4  &  | 1  &  2  &  3  &  4  &  | 
e|-------------------------|-------------------------|-------------------------|-------------------------|
B|-------------------------|-------------------------|-------------------------|-------------------------|
G|-------------------------|-------------------------|-------------------------|-------------------------|
D|-------------------------|-------------------------|-------------------------|-------------------------|
A|-------------------------|-------------------------|-------------------------|-------------------------|
E|-------------------------|-------------------------|-------------------------|-------------------------| 
   Minussa on vika                               Olen kerubi  ja  sika   

   1  &  2  &  3  &  4  &  | 1  &  2  &  3  &  4  &  | 1  &  2  &  3  &  4  &  | 1  &  2  &  3  &  4  &  |
e|-------------------------|-------------------------|-------------------------|-------------------------|
B|-------------------------|-------------------------|-------------------------|-------------------------|
G|-------------------------|-------------------------|-------------------------|-------------------------|
D|-------------------------|-------------------------|-------------------------|---------------<7>-------|
A|-------------------------|-------------------------|-------------------------|-------------------------|
E|-------------------------|-------------------------|-------------------------|-------------------------|
   Joka       kiljunnallaan              merkitykset        saastuttaa   

   1  &  2  &  3  &  4  &  | 1  &  2  &  3  &  4  &  | 1  &  2  &  3  &  4  &  | 1  &  2  &  3  &  4  &  |
e|-------------------------|-------------------------|-------------------------|-------------------------|
B|-------------------------|-------------------------|-------------------------|-------------------------|
G|<7>----------------------|-------------------------|-------------------------|---------------<5>-------|
D|-------------------------|-------------------------|-------------------------|-------------------------|
A|-------------------------|-------------------------|-------------------------|-------------------------|
E|-------------------------|-------------------------|-------------------------|-------------------------|
  Etsin  rakkautta                              Tulee syttä     tulee sutta

   1  &  2  &  3  &  4  &  | 1  &  2  &  3  &  4  &  | 1  &  2  &  3  &  4  &  | 1  &  2  &  3  &  4  &  |
e|-------------------------|-------------------------|-------------------------|-------------------------|
B|<7>----------------------|-------------------------|-------------------------|-------------------------|
G|-------------------------|-------------------------|-------------------------|-------------------------|
D|-------------------------|-------------------------|-------------------------|-------------------------|
A|-------------------------|-------------------------|-------------------------|-------------------------|
E|-------------------------|-------------------------|-------------------------|-------------------------|
              Alkuun saan            muttei           tule   valmista   

[Bridge]
(Guitar 1)
   1  &  2  &  3  &  4  &  | 1  &  2  &  3  &  4  &  | 1  &  2  &  3  &  4  &  | 1  &  2  &  3  &  4  &  |
e|-------------------------|-------------------------|-------------------------|-------------------------|
B|-------------------------|-------------------------|-------------------------|-------------------------|
G|/11~~~-------------------|------------------/11~~--|\10~~~~~-----------------|-------------------------|
D|-------------------------|-------------------------|-------------------------|-------------------------|
A|-------------------------|-------------------------|-------------------------|-------------------------|
E|-------------------------|-------------------------|-------------------------|-------------------------|

(Guitar 2)
   1  &  2  &  3  &  4  &  | 1  &  2  &  3  &  4  &  | 1  &  2  &  3  &  4  &  | 1  &  2  &  3  &  4  &  |
e|-------------------------|-------------------------|-------------------------|-------------------------|
B|-------------------------|-------------------------|-------------------------|-------------------------|
G|-------------------------|-------------------------|-------------------------|-------------------------|
D|-------4-----4--------4--|----4--------4--------4--|-------3-----3--------3--|----3--3--3--3--3--3--3--|
A|----4--------------------|-------------------------|----3--------------------|-------3--3--3--3--3--3--|
E|-2--------2-----2--2-----|-2-----2--2-----2--2-----|-1--------1-----1--1-----|-1-----1--1--1--1--1--1--|

[Chorus] x2 
(Guitar 1)
   1  &  2  &  3  &  4  &  | 1  &  2  &  3  &  4  &  | 1  &  2  &  3  &  4  &  | 1  &  2  &  3  &  4  &  |
e|-------------------------|-------------------------|-------------------------|-------------------------|
B|----12-12-12-12-14-14-14-|-14-15-15-15-15-10-10-10-|----12-12-12-12-14-14-14-|-14-15-15-15-15-10-10-10-|
G|----12-12-12-12-14-14-14-|-14-16-16-16-16-11-11-11-|----12-12-12-12-14-14-14-|-14-16-16-16-16-11-11-11-|
D|-------------------------|-------------------------|-------------------------|-------------------------|
A|-------------------------|-------------------------|-------------------------|-------------------------|
E|-------------------------|-------------------------|-------------------------|-------------------------|

(Guitar 2)
   1  &  2  &  3  &  4  &  | 1  &  2  &  3  &  4  &  | 1  &  2  &  3  &  4  &  | 1  &  2  &  3  &  4  &  | 
e|----7--7--7--7--9--9--9--|-9--10-10-10-10-5--5--5--|----7--7--7--7--9--9--9--|-9--10-10-10-10-5--5--5--|
B|----8--8--8--8--10-10-10-|-10-12-12-12-12-7--7--7--|----8--8--8--8--10-10-10-|-10-12-12-12-12-7--7--7--|
G|-------------------------|-------------------------|-------------------------|-------------------------|
D|-------------------------|-------------------------|-------------------------|-------------------------|
A|-------------------------|-------------------------|-------------------------|-------------------------|
E|-------------------------|-------------------------|-------------------------|-------------------------|
   Ihmettelen  miten  järjissäni  selviän                 Mä  menen hämilleni     yhä enemmän 
                                                          Mä  menen hämilleni     yhä enemmän         Mä
(Guitar 1)       
   1  &  2  &  3  &  4  &  | 1  &  2  &  3  &  4  &  | 1  &  2  &  3  &  4  &  | 1  &  2  &  3  &     4  &  |
e|-------------------------|-------------------------|-------------------------|----------------------------|
B|----12-12-12-12-14-14-14-|-14-15-15-15-15-10-10-10-|-------------------------|----------------------------|
G|----12-12-12-12-14-14-14-|-14-16-16-16-16-11-11-11-|-6-h7--------------------|---------/7-----6h7p6-------|
D|-------------------------|-------------------------|-7-----7-----------------|----------------------9--7--|
A|-------------------------|-------------------------|-7-----7-----------------|----------------------------|
E|-------------------------|-------------------------|-5-----------------------|----------------------------|

(Guitar 2) (Play the ending only on repeat)        
   1  &  2  &  3  &  4  &  | 1  &  2  &  3  &  4  &  | 1  &  2  &  3  &  4  &  | 1  &  2  &  3  &     4  &  |
e|----7--7--7--7--9--9--9--|-9--10-10-10-10-5--5--5--|-5~~~~-------------------|----------------------------|
B|----8--8--8--8--10-10-10-|-10-12-12-12-12-7--7--7--|-5~~~~-------------------|---------/7-----5h7p5-------|
G|-------------------------|-------------------------|-6~~~~-------------------|----------------------7--6--|
D|-------------------------|-------------------------|-7~~~~-------------------|----------------------------|
A|-------------------------|-------------------------|-------------------------|----------------------------|
E|-------------------------|-------------------------|-------------------------|----------------------------|
         Sydäntäni   puhutella      yritän      Kun    sinä  olet  sinä                   Ja hän on yhä hän
   selitän  ja piirrän ja mä lisää selitän      Kun    sinä  olet  sinä                   Ja hän on yhä hän

[Interlude 1]
(Guitar 1)
   1  &  2  &  3  &  4  &  | 1  &  2  &  3  &  4  &  | 1  &  2  &  3  &  4  &  | 1  &  2  &  3  &  4  &  | 
e|-------------------------|-------------------------|-7-----------------------|---------------------<7>-|
B|-------------------------|-------------------------|-8-----------------------|---------------------<7>-|
G|-------------------------|-------------------------|-9-----------------------|---------------------<7>-|
D|~9-----------------------|-------------------------|-9-----------------------|-------------------------|
A|-------------------------|-------------------------|-------------------------|-------------------------|
E|-------------------------|-------------------------|-------------------------|-------------------------|

(Guitar 2)
   1  &  2  &  3  &  4  &  | 1  &  2  &  3  &  4  &  | 1  &  2  &  3  &  4  &  | 1  &  2  &  3  &  4  &  | 
e|-------------------------|-------------------------|-12----------------------|-------------------------|
B|-------------------------|-------------------------|-12----------------------|-------------------------|
G|~4-----------------------|-------------------------|-12----------------------|-------------------------|
D|-------------------------|-------------------------|-14----------------------|-------------------------|
A|-------------------------|-------------------------|-------------------------|-------------------------|
E|-------------------------|-------------------------|-------------------------|-------------------------|
                                       Hän on yhä hän                                     Hän on yhä hän

[Interlude 2] (Without Guitar 2)
(Guitar 1)                                         
   1  &  2  &  3  &  4  &  | 1  &  2  &  3  &  4  &  | 1  &  2  &  3  &  4  &  | 1  &  2  &  3  &  4   &  | 
e|-------------------------|-------------------------|-------------------------|--------------------------|
B|------<12>---------------|-------------------------|------<12>---------------|----------------------<7>-|
G|-------------------------|-------------------------|-------------------------|<7>----------------<5>----|
D|---------------<7>-------|-------------------------|---------------<7>-------|--------------------------|
A|-------------------------|<7>----------------------|-------------------------|--------------------------|
E|-------------------------|-------------------------|-------------------------|--------------------------|


[Verse 2] 
(Guitar 1)
   1  &  2  &  3  &  4  &  | 1  &  2  &  3  &  4  &  | 1  &  2  &  3  &  4  &  | 1  &  2  &  3  &  4  &  |
e|-------------------------|-------------------------|-------------------------|-------------------------|
B|-------------------------|-------------------------|-------------------------|-------------------------|
G|-------------------------|-------------------------|-------------------------|-------------------------|
D|-------------------------|-------------------------|-------------------------|-------------------------|
A|-------------------------|-------------------------|-------------------------|-------------------------|
E|-------------------------|-------------------------|-------------------------|-------------------------| 

(Guitar 2) 
   1  &  2  &  3  &  4  &  | 1  &  2  &  3  &  4  &  | 1  &  2  &  3  &  4  &  | 1  &  2  &  3  &  4  &  |
e|-------------------------|-------------------------|-------3~-------3~-------|-------3~----------------|
B|-------------------------|-------------------------|-------3~-------3~-------|-------3~----------------|
G|-------------------------|-------------------------|-------4~-------4~-------|-------4~----------------|
D|-------4--------4~~------|-------4--------4~~------|-------5~-------5~-------|-------5~----------7-----|
A|----5--------5-----------|----5--------5-----------|----5--------------------|----5-----------7--------|
E|-7--------7--------------|-5--------5--------------|-3-----------------------|-3--------3-/5--------5--|
   Pimeys on tuolla                                Pimeys   on   laaksossa   

(Guitar 1)
   1  &  2  &  3  &  4  &  | 1  &  2  &  3  &  4  &  | 1  &  2  &  3  &  4  &  | 1  &  2  &  3  &  4  &  |
e|-------------------------|-------------------------|-------------------------|-------------------------|
B|-------------------------|-------------------------|-------------------------|-------------------------|
G|-------------------------|-------------------------|-------------------------|-------------------------|
D|-------------------------|-------------------------|-------------------------|---------------<7>-------|
A|-------------------------|-------------------------|-------------------------|-------------------------|
E|-------------------------|-------------------------|-------------------------|-------------------------|

(Guitar 2)     
   1  &  2  &  3  &  4  &  | 1  &  2  &  3  &  4  &  | 1  &  2  &  3  &  4  &  | 1  &  2  &  3  &  4  &  |
e|-------------------------|-------------------------|-------3~-------3~-------|-------3~----------------|
B|-------------------------|-------------------------|-------3~-------3~-------|-------3~----------------|
G|-------------------------|-------------------------|-------4~-------4~-------|-------4~----------------|
D|-------4--------4~~------|-------4--------4~~------|-------5~-------5~-------|-------5~----------7-----|
A|----5--------5-----------|----5--------5-----------|----5--------------------|----5-----------7--------|
E|h7--------7--------------|-5--------5--------------|-3-----------------------|-3--------3-/5--------5--|
   Pimeys on tuolla                               Tuhansina   valoina

(Guitar 1)
   1  &  2  &  3  &  4  &  | 1  &  2  &  3  &  4  &  | 1  &  2  &  3  &  4  &  | 1  &  2  &  3  &  4  &  |
e|-------------------------|-------------------------|-------------------------|-------------------------|
B|-------------------------|-------------------------|-------------------------|-------------------------|
G|<7>----------------------|-------------------------|-------------------------|---------------<5>-------|
D|-------------------------|-------------------------|-------------------------|-------------------------|
A|-------------------------|-------------------------|-------------------------|-------------------------|
E|-------------------------|-------------------------|-------------------------|-------------------------|

(Guitar 2)
   1  &  2  &  3  &  4  &  | 1  &  2  &  3  &  4  &  | 1  &  2  &  3  &  4  &  | 1  &  2  &  3  &  4  &  |
e|-------------------------|-------------------------|-------3~-------3~-------|-------3~----------------|
B|-------------------------|-------------------------|-------3~-------3~-------|-------3~----------------|
G|-------------------------|-------------------------|-------4~-------4~-------|-------4~----------------|
D|-------4--------4~~------|-------4--------4~~------|-------5~-------5~-------|-------5~----------7-----|
A|----5--------5-----------|----5--------5-----------|----5--------------------|----5-----------7--------|
E|h7--------7--------------|-5--------5--------------|-3-----------------------|-3--------3-/5--------5--|
  Pimeys on tuolla                                  Asuttuina    taloina                 Se   loikkii


(Guitar 1)
   1  &  2  &  3  &  4  &  | 1  &  2  &  3  &  4  &  | 1  &  2  &  3  &  4  &  | 1  &  2  &  3  &  4  &  |
e|-------------------------|-------------------------|-------------------------|<7>----------------------|
B|<7>----------------------|-------------------------|---------------<7>-------|-------------------------|
G|-------------------------|-------------------------|-------------------------|-------------------------|
D|---------<5>-------------|-------------------------|-------------------------|-------------------------|
A|-------------------------|-------------------------|-------------------------|-------------------------|
E|-------------------------|-------------------------|-------------------------|-------------------------|

(Guitar 2)
   1  &  2  &  3  &  4  &  | 1  &  2  &  3  &  4  &  | 1  &  2  &  3  &  4  &  | 1  &  2  &  3  &  4  &  |
e|-------------------------|-------------------------|-------3~-------3~-------|-------3~----------------|
B|-------------------------|-------------------------|-------3~-------3~-------|-------3~----------------|
G|-------------------------|-------------------------|-------4~-------4~-------|-------4~----------------|
D|-------4--------4~~------|-------4--------4~~------|-------5~-------5~-------|-------5~----------7-----|
A|----5--------5-----------|----5--------5-----------|----5--------------------|----5-----------7--------|
E|h7--------7--------------|-5--------5--------------|-3-----------------------|-3--------3-/5--------5--|
     Valokiilassa                    Tulee        vaik ei         tilata
 

[Bridge]
(Guitar 1)
   1  &  2  &  3  &  4  &  | 1  &  2  &  3  &  4  &  | 1  &  2  &  3  &  4  &  | 1  &  2  &  3  &  4  &  |
e|-------------------------|-------------------------|-------------------------|-------------------------|
B|-------------------------|-------------------------|-------------------------|-------------------------|
G|/11~~~-------------------|------------------/11~~--|\10~~~~~-----------------|-------------------------|
D|-------------------------|-------------------------|-------------------------|-------------------------|
A|-------------------------|-------------------------|-------------------------|-------------------------|
E|-------------------------|-------------------------|-------------------------|-------------------------|

(Guitar 2)
   1  &  2  &  3  &  4  &  | 1  &  2  &  3  &  4  &  | 1  &  2  &  3  &  4  &  | 1  &  2  &  3  &  4  &  |
e|-------------------------|-------------------------|-------------------------|-------------------------|
B|-------------------------|-------------------------|-------------------------|-------------------------|
G|-------------------------|-------------------------|-------------------------|-------------------------|
D|-------4-----4--------4--|----4--------4--------4--|-------3-----3--------3--|----3--3--3--3--3--3--3--|
A|----4--------------------|-------------------------|----3--------------------|-------3--3--3--3--3--3--|
E|-2--------2-----2--2-----|-2-----2--2-----2--2-----|-1--------1-----1--1-----|-1-----1--1--1--1--1--1--|


[Chorus] (just one guitar)
   1  &  2  &  3  &  4  &    1  &  2  &  3  &  4  &    1  &  2  &  3  &  4  &    1  &  2  &  3  &  4  &   
e|-------------------------|-------------------------|-------------------------|-------------------------|
B|---/12------/14-------15-|-------------------------|---/12------/14-------15-|-------------------------|
G|-------12-------14-------|----14----12----11-------|-------12-------14-------|----14----11~~~----------|
D|----------12-------14----|-12----------------------|----------12-------14----|-------------------------|
A|-------------------------|-------------------------|-------------------------|-------------------------|
E|-------------------------|-------------------------|-------------------------|-------------------------|
  Ihmettelen  miten  järjissäni   selviän             mä  menen   hämilleni  yhä     enemmän

   1  &  2  &  3  &  4  &    1  &  2  &  3  &  4  &    1  &  2  &  3  &  4  &    1  &  2  &  3  &  4  &   
e|-------------------------|-------------------------|-------------------------|-------------------------|
B|---/12------/14-------15-|-------------------------|-------------------------|-------------------------|
G|-------12-------14-------|----14----12----11-------|-6-h7-p6~~~--------------|-------------------------|
D|----------12-------14----|-12----12----12----------|-------------------------|-------------------------|
A|-------------------------|-------------------------|-------------------------|-------------------------|
E|-------------------------|-------------------------|-------------------------|-------------------------|   
         Sydäntäni     puhutella   yritän      kun   sinä    olet sinä                   ja hän on yhä hän

[Chorus] (The first bar is one eigth-note short of a full measure, thats why the rhythm sounds funny) 
(Guitar 1)
   1  &  2  &  3  &  4  | 1  &  2  &  3  &  4  &  | 1  &  2  &  3  &  4  &  | 1  &  2  &  3  &  4  &  |
e|----------------------|-------------------------|-------------------------|-------------------------|
B|-12-12-12-12-14-14-14-|-14-15-15-15-15-10-10-10-|----12-12-12-12-14-14-14-|-14-15-15-15-15-10-10-10-|
G|-12-12-12-12-14-14-14-|-14-16-16-16-16-11-11-11-|----12-12-12-12-14-14-14-|-14-16-16-16-16-11-11-11-|
D|----------------------|-------------------------|-------------------------|-------------------------|
A|----------------------|-------------------------|-------------------------|-------------------------|
E|----------------------|-------------------------|-------------------------|-------------------------|
                                       
(Guitar 2)
   1  &  2  &  3  &  4  | 1  &  2  &  3  &  4  &  | 1  &  2  &  3  &  4  &  | 1  &  2  &  3  &  4  &  | 
e|-7--7--7--7--9--9--9--|-9--10-10-10-10-5--5--5--|----7--7--7--7--9--9--9--|-9--10-10-10-10-5--5--5--|
B|-8--8--8--8--10-10-10-|-10-12-12-12-12-7--7--7--|----8--8--8--8--10-10-10-|-10-12-12-12-12-7--7--7--|
G|----------------------|-------------------------|-------------------------|-------------------------|
D|----------------------|-------------------------|-------------------------|-------------------------|
A|----------------------|-------------------------|-------------------------|-------------------------|
E|----------------------|-------------------------|-------------------------|-------------------------|
                                                       Mä  menen hämilleni     yhä enemmän         Mä

(Guitar 1)       
   1  &  2  &  3  &  4  &  | 1  &  2  &  3  &  4  &  | 1  &  2  &  3  &  4  &  | 1  &  2  &  3  &  4  &  |
e|-------------------------|-------------------------|-------------------------|-------------------------|
B|----12-12-12-12-14-14-14-|-14-15-15-15-15-10-10-10-|-------------------------|-------------------------|
G|----12-12-12-12-14-14-14-|-14-16-16-16-16-11-11-11-|-6-h7--------------------|-------------------------|
D|-------------------------|-------------------------|-7-----7-----------------|-------------------------|
A|-------------------------|-------------------------|-7-----7-----------------|-------------------------|
E|-------------------------|-------------------------|-5-----------------------|-------------------------|

(Guitar 2)        
   1  &  2  &  3  &  4  &  | 1  &  2  &  3  &  4  &  | 1  &  2  &  3  &  4  &  | 1  &  2  &  3  &  4  &  |
e|----7--7--7--7--9--9--9--|-9--10-10-10-10-5--5--5--|-5~~~~-------------------|-------------------------|
B|----8--8--8--8--10-10-10-|-10-12-12-12-12-7--7--7--|-5~~~~-------------------|-------------------------|
G|-------------------------|-------------------------|-6~~~~-------------------|-------------------------|
D|-------------------------|-------------------------|-7~~~~-------------------|-------------------------|
A|-------------------------|-------------------------|-------------------------|-------------------------|
E|-------------------------|-------------------------|-------------------------|-------------------------|
   selitän  ja piirrän ja mä lisää selitän      Kun    sinä  olet  sinä                   Ja hän on yhä hän


[Solo] 
(Guitar 1)
   1  &  2  &  3  &  4  &  | 1  &  2  &  3  &  4  &  | 1  &  2  &  3  &  4  &  | 1  &  2  &  3  &  4  &  | 
e|----7--7--7--7-/9--9-/10-|-10/12-12/14-14/15-15/14-|-------------------------|-------------------------|
B|----8--8--8--8-----------|-------------------------|----12-12-12-12/14-14/15-|-15/10-10/8--8-/7--7-----|
G|-------------------------|-------------------------|----12-12-12-12----------|----------------------7--|
D|-------------------------|-------------------------|-------------------------|-------------------------|
A|-------------------------|-------------------------|-------------------------|-------------------------|
E|-------------------------|-------------------------|-------------------------|-------------------------|

(Guitar 2)
   1  &  2  &  3  &  4  &  | 1  &  2  &  3  &  4  &  | 1  &  2  &  3  &  4  &  | 1  &  2  &  3  &  4  &  | 
e|-------------------------|-------------------------|-------------------------|-------------------------|
B|-------------------------|-------------------------|-------------------------|----------------0-----0--|
G|----4--4--4--4--6--6--6--|-6--7--7--7--7--9--9--9--|-9--4--4--4--4--6--6--6--|-6--7--7--7--7--2--2--2--|
D|----5--5--5--5--7--7--7--|-7-(7)-7-(7)-7--12-12-12-|-12-5--5--5--5--7--7--7--|-7-(7)-7-(7)-7--0--0-----|
A|-------------------------|-------------------------|-------------------------|-------------------------|
E|----3--3--3--3-----------|-------------------------|----3--3--3--3-----------|-------------------------|

(Guitar 1)
   1  &  2  &  3  &  4  &  | 1  &  2  &  3  &  4  &  | 1  &  2  &  3  &  4  &  | 1  &  2  &  3  &  4  &  |
e|----7--7--7--7-/9--9-/10-|-10/12-12/14-14/15-15/14-|-14-------14-------------|-14-------14----14----14-|
B|----8--8--8--8-----------|-------------------------|-------0--------0--------|-------0-----0-----0-----|
G|-------------------------|-------------------------|----11----------------11-|----11-------------------|
D|-------------------------|-------------------------|-------------------------|-------------------------|
A|-------------------------|-------------------------|-------------------------|-------------------------|
E|-------------------------|-------------------------|-------------------------|-------------------------|

(Guitar 2)
   1  &  2  &  3  &  4  &  | 1  &  2  &  3  &  4  &  | 1  &  2  &  3  &  4  &  | 1  &  2  &  3  &  4  &  | 
e|-------------------------|-------------------------|----------0-----------0--|----------0-----------0--|
B|-------------------------|-------------------------|-------0-----------0-----|-0-----------------0-----|
G|----4--4--4--4--6--6--6--|-6--7--7--7--7--9--9--9--|----3-----------3--------|----3-----------3--------|
D|----5--5--5--5--7--7--7--|-7-(7)-7-(7)-7--12-12-12-|-4-----------------------|-------4-----------------|
A|-------------------------|-------------------------|-------------------------|-------------------------|
E|----3--3--3--3-----------|-------------------------|-------------------------|-------------------------|

[Chorus]
(Guitar 1)
   1  &  2  &  3  &  4  &  | 1  &  2  &  3  &  4  &  | 1  &  2  &  3  &  4  &  | 1  &  2  &  3  &  4  &  |
e|-------------------------|-------------------------|-------------------------|-------------------------|
B|----12-12-12-12-14-14-14-|-14-15-15-15-15-10-10-10-|----12-12-12-12-14-14-14-|-14-15-15-15-15-10-10-10-|
G|----12-12-12-12-14-14-14-|-14-16-16-16-16-11-11-11-|----12-12-12-12-14-14-14-|-14-16-16-16-16-11-11-11-|
D|-------------------------|-------------------------|-------------------------|-------------------------|
A|-------------------------|-------------------------|-------------------------|-------------------------|
E|-------------------------|-------------------------|-------------------------|-------------------------|

(Guitar 2)
   1  &  2  &  3  &  4  &  | 1  &  2  &  3  &  4  &  | 1  &  2  &  3  &  4  &  | 1  &  2  &  3  &  4  &  | 
e|----7--7--7--7--9--9--9--|-9--10-10-10-10-5--5--5--|----7--7--7--7--9--9--9--|-9--10-10-10-10-5--5--5--|
B|----8--8--8--8--10-10-10-|-10-12-12-12-12-7--7--7--|----8--8--8--8--10-10-10-|-10-12-12-12-12-7--7--7--|
G|-------------------------|-------------------------|-------------------------|-------------------------|
D|-------------------------|-------------------------|-------------------------|-------------------------|
A|-------------------------|-------------------------|-------------------------|-------------------------|
E|-------------------------|-------------------------|-------------------------|-------------------------|
   Ihmettelen  miten  järjissäni  selviän                 Mä  menen hämilleni     yhä enemmän 

(Guitar 1)       
   1  &  2  &  3  &  4  &  | 1  &  2  &  3  &  4  &  | 1  &  2  &  3  &  4  &  | 1  &  2  &  3  &     4  &  |
e|-------------------------|-------------------------|-------------------------|----------------------------|
B|----12-12-12-12-14-14-14-|-14-15-15-15-15-10-10-10-|-------------------------|----------------------------|
G|----12-12-12-12-14-14-14-|-14-16-16-16-16-11-11-11-|-6-h7--------------------|---------/7-----6h7p6-------|
D|-------------------------|-------------------------|-7-----7-----------------|----------------------9--7--|
A|-------------------------|-------------------------|-7-----7-----------------|----------------------------|
E|-------------------------|-------------------------|-5-----------------------|----------------------------|

(Guitar 2)        
   1  &  2  &  3  &  4  &  | 1  &  2  &  3  &  4  &  | 1  &  2  &  3  &  4  &  | 1  &  2  &  3  &     4  &  |
e|----7--7--7--7--9--9--9--|-9--10-10-10-10-5--5--5--|-5~~~~-------------------|----------------------------|
B|----8--8--8--8--10-10-10-|-10-12-12-12-12-7--7--7--|-5~~~~-------------------|---------/7-----5h7p5-------|
G|-------------------------|-------------------------|-6~~~~-------------------|----------------------7--6--|
D|-------------------------|-------------------------|-7~~~~-------------------|----------------------------|
A|-------------------------|-------------------------|-------------------------|----------------------------|
E|-------------------------|-------------------------|-------------------------|----------------------------|
         Sydäntäni   puhutella      yritän      Kun    sinä  olet  sinä                   Ja hän on yhä hän

[Interlude 1]
(Guitar 1)
   1  &  2  &  3  &  4  &  | 1  &  2  &  3  &  4  &  | 1  &  2  &  3  &  4  &  | 1  &  2  &  3  &  4  &  | 
e|-------------------------|-------------------------|-7-----------------------|---------------------<7>-|
B|-------------------------|-------------------------|-8-----------------------|---------------------<7>-|
G|-------------------------|-------------------------|-9-----------------------|---------------------<7>-|
D|~9-----------------------|-------------------------|-9-----------------------|-------------------------|
A|-------------------------|-------------------------|-------------------------|-------------------------|
E|-------------------------|-------------------------|-------------------------|-------------------------|

(Guitar 2)
   1  &  2  &  3  &  4  &  | 1  &  2  &  3  &  4  &  | 1  &  2  &  3  &  4  &  | 1  &  2  &  3  &  4  &  | 
e|-------------------------|-------------------------|-12----------------------|-------------------------|
B|-------------------------|-------------------------|-12----------------------|-------------------------|
G|~4-----------------------|-------------------------|-12----------------------|-------------------------|
D|-------------------------|-------------------------|-14----------------------|-------------------------|
A|-------------------------|-------------------------|-------------------------|-------------------------|
E|-------------------------|-------------------------|-------------------------|-------------------------|
                                       Hän on yhä hän                                     Hän on yhä hän   
    

[Outro] x2
(Guitar 1)                                        
   1  &  2  &  3  &  4  &  | 1  &  2  &  3  &  4  &  | 1  &  2  &  3  &  4  &  | 1  &  2  &  3  &  4  &   |
e|-------------------------|-------------------------|-------------------------|--------------------------|
B|------<12>---------------|-------------------------|------<12>---------------|----------------------<7>-|
G|-------------------------|-------------------------|-------------------------|<7>----------------<5>----|
D|---------------<7>-------|-------------------------|---------------<7>-------|--------------------------|
A|-------------------------|<7>----------------------|-------------------------|--------------------------|
E|-------------------------|-------------------------|-------------------------|--------------------------|

(Guitar 2)
   1  &  2  &  3  &  4  &  | 1  &  2  &  3  &  4  &  | 1  &  2  &  3  &  4  &  | 1  &  2  &  3  &  4  &  | 
e|-------------------------|-------------------------|-------3~-------3~-------|-------3~-------3~-------|
B|-------------------------|-------------------------|-------3~-------3~-------|-------3~-------3~-------|
G|-------------------------|-------------------------|-------4~-------4~-------|-------4~-------4~-------|
D|-------4--------4~~------|-------4--------4~~------|-------5~-------5~-------|-------5~-------5~-------|
A|----5--------5-----------|----5--------5-----------|----5--------------------|-------------------------|
E|-7--------7--------------|-5--------5--------------|-3-----------------------|-------------------------|

End
e|----------|
B|-----<7>--|
G|-<5>------|
D|----------|
A|----------|
E|----------|


************************************

| x   Dead note
| <>  Harmonic
| (n) Ghost note
| h   Hammer-on
| p   Pull-off
| /   Slide up
| \   Slide down
| ~   Vibrato

************************************

            
            
Suggest correction
Creating personal tab
Creating personal tab
You can edit any tab online and save it as your Personal.

You can edit, replace or remove any tab part or add personal notes – all changes will be seen only by you.

Personal tabs can be accessed anytime from any device, even offline.
Learn more »
Give kudos to tab author, rate the tab!
1 2 3 4 5
comments
print report bad tab
guest
You may want to rate the tab now too:
select rating
Wanna post a correction for this tab? Suggest correction