Oops, an error
Loading. Please wait.

Huele A Tristeza Tab

version 1
version 1

Whole song

Interactive

76 views 1 this week
no commentswrite comment
1 2 3 4 5
3 more votes to show rating
add to favorites
launch autoscroll
font size
0
reset
how to read this tab
guitar tuner
×
Best way to learn
"Huele A Tristeza"
Autoscroll
slow
fast
+/-
esc
set tempo
stop
HOLA AMIGOS COMO ESTA YO SIGO VINIENDO CON MAS ROLAS DE MANÁ
Y ESTA VES CON "huele a tristeza" UN ROLA QUE COMO SIEMPRE
YO SE LAS DEJO COMPLETA ASI QUE ESPERO QUE LES GUSTE:
===========================COMIENZO============================
INTRO:
1.-----3--0--------1--------3--5----------------|
2.-----------------------0----------------------|
3.-----------0--2-----2-------------------------|
4.----------------------------------------------|
5.----------------------------------------------|
6.--3-------------------------------------------|

1.---3--0--------1--------3--5--7---------------|
2.--------------------0-------------------------|
3.--------0--2-----2----------------------------|
4.----------------------------------------------|
5.----------------------------------------------|
6.--3-------------------------------------------|

1.--8--0--------1--------3--5-------------------|
2.--------------------0-------------------------|
3.--------0--2-----2----------------------------|
4.----------------------------------------------|
5.----------------------------------------------|
6.----------------------------------------------|

1.-----------0-----------------3/5--3--0--------|
2.--------1-----1-----1-------------------3--1--|
3.-----2-----------2--------4-------------------|
4.----------------------------------------------|
5.----------------------------------------------|
6.--1--------------------3----------------------|

 VERSOS:
C
Solo huele a tristeza
         Em     Am
huele a soledad
                F
en mis ojos perdidos
      C       G
solo hay humedad.
C
Siento un grande vacio
       Em     Am
en mi corazon
                  F
siento un escalofrio
D        G
de ansiedad.

PRECORO:
Em       F
Donde esta,
         C      Em      Am
la otra parte de mi corazon
F    G        C
ay amor, donde andas,
Em         Am
donde viviras,
D               G    F  G
donde, donde estas.

(AHORA EL CORO)

CORO:
C                Am          F
Huele a tristeza, este corazon
                    G            C
Sabe a tu ausencia, sabe a dolor
                 Am       F   G
Huele a tristeza, este corazon,
          Am
sabe a dolor.
1.-7-5----5----|
2.------7---7-|
3.-------------|
4.-------------|
5.-------------|
6.-------------|

Necesito de alguien
alguien a quien amar
necesito dar todo
todo mi corazon.

C
Te he estado buscando
        Em           Am
cielo, tierra y mar,
                  F
debajo de las piedras
D              G
y hasta en el sol.

PRECORO:
Em       F
Donde esta,
         C      Em      Am
la otra parte de mi corazon
F    G        C
ay amor, donde andas,
Em         Am
donde viviras,
D               G    F  G
donde, donde estas.

CORO:
C                Am          F
Huele a tristeza, este corazon
                    G            C
Sabe a tu ausencia, sabe a dolor
                 Am       F   G
Huele a tristeza, este corazon,

sabe a dolor.

C                Am          F
Huele a tristeza, este corazon
                    G            C
Sabe a tu ausencia, sabe a dolor
                 Am       F   G
Huele a tristeza, este corazon,

sabe a dolor.

1.-----3--0--------1--------3--5----------------|
2.-----------------------0----------------------|
3.-----------0--2-----2-------------------------|
4.----------------------------------------------|
5.----------------------------------------------|
6.--3-------------------------------------------|

1.---3--0--------1--------3--5--7---------------|
2.--------------------0-------------------------|
3.--------0--2-----2----------------------------|
4.----------------------------------------------|
5.----------------------------------------------|
6.--3-------------------------------------------|

1.--8--0--------1--------3--5-------------------|
2.--------------------0-------------------------|
3.--------0--2-----2----------------------------|
4.----------------------------------------------|
5.----------------------------------------------|
6.----------------------------------------------|

1.-----------0-----------------3/5--3--0--------|
2.--------1-----1-----1-------------------3--1--|
3.-----2-----------2--------4-------------------|
4.----------------------------------------------|
5.----------------------------------------------|
6.--1--------------------3----------------------|

SOLO DE ARMONICA
(LA GUITARRA LO ACOMPAÑA CON LOS ACORDES DEL CORO)

Sabe sabe sabe a dolor (SE REPITE HASTA EL FINAL)
==========================FIN==================================
BUENO AMIGOS AHORA YA LA PUEDEN TOCAR COMPLETA COMO QUISIERÓN
FUE UN GUSTO COLAVORAR CON ESTA CANCIÓN LO UNICO QUE LES DIGO
ES "practiquen" OK CHAÚ.

 LEANDRO_TRANSCRIPCIONES@ 18/01/06  14:35hs
 CHAU!!!!!!!!
Suggest correction
Give kudos to tab author, rate the tab!
1 2 3 4 5
comments
print report bad tab
guest
You may want to rate the tab now too:
select rating
Wanna post a correction for this tab? Suggest correction