Oops, an error
Loading. Please wait.

Huele A Tristeza Tab

version 3
version 3

Whole song

Interactive

by Maná
394 views 1 this week
no commentswrite comment
1 2 3 4 5
1 last vote to show rating
add to favorites
×
Save as Personal and add changes to this tab that will be seen only by you. Learn more ›
×
You can save this tab as Personal to edit and correct it or add notes. All changes will be seen only by you. Learn more »
save as personal
new!
launch autoscroll
font size
0
reset
how to read this tab
guitar tuner
Autoscroll
slow
fast
+/-
esc
set tempo
stop
Hola amigos: Estémos atentos: El segundo acorde de la estrofa
es un SOL (G) y no un MI menor (Em). Les dejo una tablatura
de este delicioso intro que todos queremos tocar, pero para
hacerlo bien es necesario hacerlo como se oye en la versión
de estudio, es decir, con dos voces armonizadas (bastante
agudas, cosa que también influye). Esta es mi apreciación
de cómo lo hace, ya que no he podido encontrar un vídeo
de Maná tocando esta canción. Cuidado, suena más difícil
de lo que es, así que busquen las digitaciones más cómodas
para las notas dobles, características de esta gran guitarrista.
A practicar!

=====0:01=====

-INTRO: (deja vibrar las notas hasta que pulses las siguientes)

1.----------------------------------------------|
2.----8---5------6----8--10----8---5--------6---|
3.----------------------------------------------|
4.---10---5----5/7--7/9---9---10---5------5/7---|
5.----------------------------------------------|
6.----------------------------------------------|

1.--------------8-------------------------------|
2.---8--10/12--------5-----6----8----10---------|
3.--------------9-------------------------------|
4.-7/9--10/12--------5---5/7--7/9----10---------|
5.----------------------------------------------|
6.----------------------------------------------|

1.--------0-------------5-5--3-3----------------|
2.-----------1----------3-3--3-3----------------|
3.-----2----------4-----4-4--4-4----------------|
4.---3----------5-------5-5--5-5----------------|
5.----------------------------------------------|
6.----------------------------------------------|

(En ésto último esos acordes con notas
dobles al final son muy importantes)

=====0:21=====

-ESTROFA I: (Numeré las secciones sólo para que se ubiquen
ya que son iguales)

C
Solo huele a tristeza
         G
huele a soledad
Am                F
en mis ojos perdidos
      C       G
solo hay humedad.

C
Siento un grande vacio
       G
en mi corazon
Am               F
siento un escalofrio
D        G
de ansiedad.


=====0:54=====

-PUENTE I: (recomiendo también tocar el bajo descendente
del DO, bajarlo a SI, sin tocar el bajo de SOL)

Em       F
Donde esta,
         C      G        Am
la otra parte de mi corazon?
F    G         C
ay amor, donde andas,
G          Am
donde viviras?,
D               G    F  G
donde, donde estas?.


=====1:23=====

CORO I:

C                Am
Huele a tristeza, este corazon
F                    G
Sabe a tu ausencia, sabe a dolor
C                 Am       F
Huele a tristeza, este corazon,
G           Am
   sabe a dolor...


=====1:43=====

(se puede tocar el arreglito ahí)

1.--------------------------|
2.----5-6-5-----------5-----|  Todas las notas
3.----------7-5------/5-----|  con hammer on y pull off,
4.--------------------------|  luego un glissando
5.--------------------------|
6.--------------------------|


=====1:47=====

-ESTROFA II:

Necesito de alguien
alguien a quien amar
necesito dar todo
todo mi corazon.


=====2:02=====

(se puede tocar así el arreglo justo
antes de la voz)

1.--------------------------|
2.--------------------------|
3.---7----9--9---7----------|
4.---9---10-10---9----------|
5.--------------------------|
6.--------------------------|

C
Te he estado buscando
        G           Am
cielo, tierra y mar,
                  F
debajo de las piedras
D              G
y hasta en el sol.


=====2:20=====

PUENTE II:

Em       F
Donde esta,
         C      G       Am
la otra parte de mi corazon?
F    G        C
ay amor, donde andas,
G         Am
donde viviras?,
D               G    F  G
donde, donde estas?.


=====2:48=====

CORO II:

C                Am
Huele a tristeza, este corazon
F                   G
Sabe a tu ausencia, sabe a dolor
C                Am
Huele a tristeza, este corazon,
F                    G
Sabe a tu ausencia, sabe a dolor


C                Am
Huele a tristeza, este corazon
F                    G
Sabe a tu ausencia, sabe a dolor
C                Am       F   G
Huele a tristeza, este corazon,


=====3:27=====

-REPETIR INTRO


=====3:45=====

-SOLO DE ARMÓNICA
(Sobre los acordes del Coro)

(siguen los acordes del Coro
Sabe, sabe, sabe, a dolor hasta el fadeout)

Beneharo Garay


benegaray@
Suggest correction
Give kudos to tab author, rate the tab!
1 2 3 4 5
comments
print report bad tab
guest
Wanna post a correction for this tab? Suggest correction