Oops, an error
Loading. Please wait.

Huele A Tristeza Tab

version 2
version 2

Whole song

Interactive

91 views 1 this week
no commentswrite comment
1 2 3 4 5
3 more votes to show rating
add to favorites
launch autoscroll
font size
0
reset
how to read this tab
guitar tuner
Autoscroll
slow
fast
+/-
esc
set tempo
stop
Help us to improve Ultimate-Guitar.com Take our survey!
×
E--3--------------------------------|
A-----------------------------------|
D-----------------------------------|
G-----------0--2-----2--------------|
B-----------------------0-----------|
E-----3--0--------1--------1--3--5--|


E-----------------------------------|
A-----------------------------------|
D-----------------------------------|
G--------0--2-----2-----------------|
B--------------------0--------------|
E--3--0--------1--------1--3--5--7--|


E-----------------------------|
A-----------------------------|
D-----------------------------|
G--------0--2-----2-----------|
B--------------------0--------|
E--8--0--------1--------1--3--|


E--1--------------------|
A-----------------------|
D-----------------------|
G-----2-----------2-----|
B--------1-----1-----1--|
E-----------0-----------|


                       C  <--- Aquí entra el acorde y
E--3----------------------|    empieza la canción
A-------------------------|
D-------------------------|
G-----4-------------------|
B----------------5--3--1--|
E--------3/5--3-----------|


Esta intro se toca otra vez antes de que empieze la harmónica


Cualquier duda o corrección, escríbanme.
Suggest correction
Give kudos to tab author, rate the tab!
1 2 3 4 5
comments
print report bad tab
guest
You may want to rate the tab now too:
select rating
Wanna post a correction for this tab? Suggest correction