Oops, an error
Loading. Please wait.

Huele A Tristeza Tab

version 4
version 4

Whole song

Interactive

by Maná
169 views 1 this week
no commentswrite comment
1 2 3 4 5
3 more votes to show rating
add to favorites
launch autoscroll
font size
0
reset
how to read this tab
guitar tuner
Autoscroll
slow
fast
+/-
esc
set tempo
stop
Este es el punteo del inicio y que se repite más tarde cerca del final de la canción.


-3-0-----1-----3-5-3-0-----1-----2-5-7--8-0-----1-----3-5-----0------------3-5-3-------¦
-5-1---------------5-1-----------------10-1---------------------1----------5-----------¦
-----0-2---2-4-4-5-----0-2---2-4-4-5-7------0-2---2-4-4-5---2-----2------4-------5-4---¦
----------------------------------------------------------3---------3--5-------------5-¦
---------------------------------------------------------------------------------------¦
---------------------------------------------------------------------------------------¦

Este es el punteo final

--------------------------------------------5-8-7--12-13-13-13-13-15-15---------------¦
-5-6-5--5-8-5-6--5-6-5-3-----5-6-5--5-8-5-6-------------------------------------------¦
-------------------------0-2----------------------------------------------------------¦
--------------------------------------------------------------------------------------¦
--------------------------------------------------------------------------------------¦
--------------------------------------------------------------------------------------¦


-13-12-10--12-10-----10---------------------------------------------------------------¦
-----------------13-----13-12--13-12-10-----------------------------------------------¦
-----------------------------------------12-14----------------------------------------¦
--------------------------------------------------------------------------------------¦
--------------------------------------------------------------------------------------¦
--------------------------------------------------------------------------------------¦


-13-15-15-13-13-13-12-12-12-10-10-10-10-10-12-12-13-13-13-12-12-12-10-10-10-----------¦
--------------------------------------------------------------------------------------¦
--------------------------------------------------------------------------------------¦
--------------------------------------------------------------------------------------¦
--------------------------------------------------------------------------------------¦
--------------------------------------------------------------------------------------¦


-8-8-8--7-7-7--8-8-8--7-7-7--5-5-5--3-3-3--5-5-5--7-7-7-------------------------------¦
--------------------------------------------------------------------------------------¦
--------------------------------------------------------------------------------------¦
--------------------------------------------------------------------------------------¦
--------------------------------------------------------------------------------------¦
--------------------------------------------------------------------------------------¦


--------------------------------------------------------------------------------------¦
-6-6-6--6-5-5-5--3-5-1--6-6-6-6-6-6-6--5--6-3-----------------------------------------¦
-5-5-5--5-5-5-5--4-5-2--5-5-5-5-5-5-5--5--5-4-----------------------------------------¦x4
--------------------------------------------------------------------------------------¦
--------------------------------------------------------------------------------------¦
--------------------------------------------------------------------------------------¦

En esta última tabla, si tratan de recordar la melodía del punteo y tocarla en estos
momentos, encontrarán que la parte en donde aparecen -6-6-5-5-5  etc, se repiten más
 					             -5-5-5-5-5

de la cuenta y seguramente pensarás, 'de dónde sacó tantas notas este loco', pero escuchen
la canción en la parte del punteo final (CD 1 DE MANÁ EN VIVO) y verán que más o menos es así,
y que incluso se repite más. Aunque también suena bien sin repetir tantas veces.

Bueno, espero que les sirvan estas tab.
Chao
Suggest correction
Give kudos to tab author, rate the tab!
1 2 3 4 5
comments
print report bad tab
guest
Wanna post a correction for this tab? Suggest correction