Oops, an error
Loading. Please wait.

Música Del Cielo Tab

467 views 1 this week
no commentswrite comment
1 2 3 4 5
2 more votes to show rating
add to favorites
launch autoscroll
font size
0
reset
how to read this tab
guitar tuner
×
Best way to learn
"Música Del Cielo"
Autoscroll
slow
fast
+/-
esc
set tempo
stop
Intro:
E5-B/E


D --11-11-11-11---9---11--11-11-11-11-11-----------
A ---9--9--9--9---7----9---9--9--9--9--9-----------
E -------------------------------------------------

D --13--13--13--13---14---13---13--13--13--13--13--
A --11--11--11--11---12---11---11--11--11--11--11--
E -------------------------------------------------

D --11-11-11-11---9---11--11-11-11-11-11-----------
A ---9--9--9--9---7----9---9--9--9--9--9-----------
E -------------------------------------------------

D --13--13--13--13---14---13---14---13---11---9----
A --11--11--11--11---12---14---12---11----9---7----
E -------------------------------------------------

     E5     B/E
Vamos a cantar
        E5         B/E
Con la música del cielo
      C#m
Vamos a cantar

Alegres porque escuchas cuando
 Bsus2      Asus2
Cantamos para exaltar
    E5
Tu nombre

Como grita Guatemala????? //Asus2-E5//

E5
  Amamos todo de ti

  Tu creación te adora
C#m
  En los reinos se rinde
                         Bsus2
  Hijo de Dios eres porque
            Asus2      E5
  Eres porque vivimos hoy

 E5          B/E
  Eres quien nos liberta
 E5       B/E
  Eres la luz que guía
C#m
  Que como un fuego ardiente
                         Bsus2
  Hijo de dios eres porque
            Asus2      E5-Bsus2
  Eres porque vivimos hohoy

      E5    B/E       E5          B/E
Vamos a cantar con la música del cielo
       C#m
Vamos a cantar alegres porque escuchas
        Bsus2      Asus2              E5-B/E
Cuando cantamos para exaltar tu nombre

E5       B/E
  Amamos todo de ti
E5        B/E
  Tu creación te adora
C#m
  En los reinos se rinde
                         Bsus2
  Hijo de Dios eres porque
            Asus2      E5-Bsus2
  Eres porque vivimos hohoy

      E5    B/E       E5          B/E
Vamos a cantar con la música del cielo
       C#m
Vamos a cantar alegres porque escuchas
        Bsus2      Asus2         E5-----Asus2
Cuando cantamos para exaltar tu nombre


SOLO:
e ---12--14--12--14-p-12--12-v-----12--14--12--14-p-12--12-v------12--14--14-
B -----------------------------12-v--------------------------12-v------------
G ---------------------------------------------------------------------------

e ---7--7--7--5--5--5--------------------------------------------------------
B ---------------------7--7--7--5--5--5--5-----------------------------------
G ---------------------------------------------------------------------------

e ---7--5--7-v--------7-v---7--5--7-v--------7-v-----------------------------
B -------------7-p-8------------------7-p-8----------------------------------
G ---------------------------------------------------------------------------


      E5
Vamos a cantar con la música del cielo
       C#m
Vamos a cantar alegres porque escuchas
        Bsus2      Asus2
Cuando cantamos para exaltar

      E5    B/E       E5          B/E
Vamos a cantar con la música del cielo
       C#m
Vamos a cantar alegres porque escuchas
        Bsus2      Asus2          E5------B/E
Cuando cantamos para exaltar tu nombre


Acordes Usados:
   E5          B/E
E---------/  E---------/
B---------/  B---------/
G----9----/  G----8----/
D----9----/  D----9----/
A----7----/  A----7----/
E---------/  E---------/

  Bsus2        Asus2
E----2----/  E----0----/
B----2----/  B----0----/
G----4----/  G----2----/
D----4----/  D----2----/
A----2----/  A----0----/
E---------/  E---------/
Suggest correction
Give kudos to tab author, rate the tab!
1 2 3 4 5
comments
print report bad tab
guest
You may want to rate the tab now too:
select rating
Wanna post a correction for this tab? Suggest correction