Oops, an error
Loading. Please wait.

Esclavo Y Amo Tab

version 3
version 3

Whole song

49 views 1 this week
no commentswrite comment
1 2 3 4 5
3 more votes to show rating
add to favorites
launch autoscroll
font size
0
reset
how to read this tab
guitar tuner
Autoscroll
slow
fast
+/-
esc
set tempo
stop
  Ritmo: Bolero ranchero


  Intro:


        Am            G             F             E7 (Pausa)
e|------5---5-5---------------------------------------
B|---5------------5-6-8---8-8-----5-6---6-6-------5---
G|------------------------------7-------------5-7-----
D|----------------------------------------------------
A|----------------------------------------------------
E|----------------------------------------------------


e|-------------------5/7-7---5-4-----5---4-5-4-----------
B|---5-6-5---5-6-8-----------------5-----------6-5-6-5---
G|---------7---------------------------------------------
D|-------------------------------------------------------
A|-------------------------------------------------------
E|-------------------------------------------------------

  Para terminar el requinto puedes hacer cualquiera de estos remates

   e|---0---5---5-4-5---          e|---0---5---5-7-8---8-7-5---7-5-4-5-
   B|-------------------          B|-----------------------------------
   G|-------2---2-1-2---          G|-------2---2-4-5---5-4-2---4-2-1-2-
   D|---2---------------          D|---2-------------------------------
   A|-------------------          A|-----------------------------------
   E|-------------------          E|-----------------------------------


   Am
No se que tienen tus ojos
                   G
No se que tiene tu voca
                 F
Que domina mis antojos
                     E7
y a mi sangre vuelve loca


   Am
No se como fuy a quererte
                  G
Ni como te fuy adorando
                    F
Me siento morir mil veces
                    E7
Cuando no te estoy amando


Dm
De noche cuando me acuesto
  Am      E7       Am
A dios le pido olvidarte
                 G
Y al amanecer despierto
    F            E7
Tan solo para adorarte


Dm
Que infuencia tienen tus labios
    Am     E7       Am
Que cuando me besas timeblo
                        G
Y haces que me sienta esclavo
  F          E7
Y amo del universo


Solo:


       Am
e|-----5-5-5-5-5-5-7-8-7-5-5-5-5-5-5---
B|---5---------------------------------
G|-------------------------------------
D|-------------------------------------
A|-------------------------------------
E|-------------------------------------


                       G
e|-----5-5-5-5-7-7-8-5-7---------------
B|---5-------------------8-8-8-8-8-8---
G|-------------------------------------
D|-------------------------------------
A|-------------------------------------
E|-------------------------------------


                       F
e|-------------5-5-7---5---------------
B|-----8-8-8-8-------8---6-6-6-6-6-6---
G|---7---------------------------------
D|-------------------------------------
A|-------------------------------------
E|-------------------------------------

                       E7
e|-----------------5-------------------
B|-----6-6-6-6-8-8---6-8-5-5-5-5-5-5---
G|---5---------------------------------
D|-------------------------------------
A|-------------------------------------
E|-------------------------------------


Dm
De noche cuando me acuesto
  Am      E7       Am
A dios le pido olvidarte
                 G
Y al amanecer despierto
    F            E7
Tan solo para adorarte


Dm
Que infuencia tienen tus labios
    Am     E7       Am
Que cuando me besas timeblo
                        G
Y haces que me sienta esclavo
  F (Pausa)
Y amo del universo


        Am            G             F             E7 (Pausa)
e|------5---5-5---------------------------------------
B|---5------------5-6-8---8-8-----5-6---6-6-------5---
G|------------------------------7-------------5-7-----
D|----------------------------------------------------
A|----------------------------------------------------
E|----------------------------------------------------


e|-------------------5/7-7---5-4-----5---4-5-4-----------0---
B|---5-6-5---5-6-8-----------------5-----------6-5-6-5---1---
G|---------7---------------------------------------------2---
D|-------------------------------------------------------2---
A|-------------------------------------------------------0---
E|-------------------------------------------------------0---
Suggest correction
Give kudos to tab author, rate the tab!
1 2 3 4 5
comments
print report bad tab
guest
Wanna post a correction for this tab? Suggest correction