Oops, an error
Loading. Please wait.

De Purisima Y Oro Tab

73 views 1 this week
no commentswrite comment
1 2 3 4 5
3 more votes to show rating
add to favorites
×
Save as Personal and add changes to this tab that will be seen only by you. Learn more ›
×
You can save this tab as Personal to edit and correct it or add notes. All changes will be seen only by you. Learn more »
save as personal
new!
launch autoscroll
font size
0
reset
how to read this tab
guitar tuner
Autoscroll
slow
fast
+/-
esc
set tempo
stop
Bueno, aquí va esta pequeña pero no menos reconfortante contribución,
que es la intro de la canción ?De purísima y oro? de Joaquín Sabina,
más o menos como suena en mis oidos tras unos 400 ciclos de rebobinado
para adelante y para atrás. He intentado poner los sonidos ordenados
en secuencia temporal (parecido al Guitar Pro), donde ---- equivale
a la duración de una negra (con algunos detalles que no logro reflejar
bien en esto del tabulado con Courier), con lo que los 12 ? de cada
compás equivalen las 3 notas negras del mismo (si todavía recuerdo
bien esas cosillas del solfeo).

Espero que les guste!


   1.1            1.2            1.3            1.4   *
E| ----3---3--- | --------5-3- | 1---0---0-0/1|/0-----0/1/0- |
B| ----3-----3- | ------0----- | ------------ | --0-----3-1- |
G| ------------ | ----0------- | ------------ | ----0------- |
D| ------------ | --0--------- | --0---0----- | ------------ |
A| ------------ | 2----------- | 3----------- | ------------ |
E| 3----------- | ------------ | ------------ | ------------ |


   2.1            2.2            2.3            2.4
E| ------3----- | --------5-3- | 1---0---0-0/1|/0----------- |
B| 3---3------- | ------0----- | ------------ | ----0------- |
G| --0--------- | ----0------- | --0---0----- | --------0--- |
D| ------------ | --0--------- | ------------ | ------------ |
A| ----------0- | 2----------- | 3----------- | ------------ |
E| 3-------3--- | ------------ | ------------ | ------------ |


   3.1            3.2            3.3            3.4
E| ------1-0-1- | 7-----5----- | 0-----0----- | ------------ |
B| ----3------- | ------------ | ----1---1-0- | ------------ |
G| --2--------- | ---0-----0-- | --2--------- | 2---2------- |
D| 0----------- | ------------ | ------------ | --2---2----- |
A| ------------ | ------------ | 0----------- | --------0-1- |
E| ------------ | 0----------- | ------------ | ------------ |


   4.1            4.2            4.3            4.4
E| --------2--5 |/8---7---5--- | 4-----7----- | ------------ |
B| 0-----4----- | ------------ | --0-----6--- | 5----------- |
G| ------------ | ------------ | ----0------- | ------------ |
D| ----1------- | ------------ | ------------ | ------------ |
A| 2----------- | ------------ | --------3--- | 2----------- |
E| ------------ | ------------ | 0----------- | ------------ |

*este 0/1/0 acaba justo antes del comienzo del 3 siguiente
de la cuerda B

pd: no sé porqué al subir la tablatura no pude añadir guión inverso,
por lo que puse un / donde debía aparecer el opuesto.

Alguna sugerencia: animalxpepi@
(abstenerse personal de la Sgae!! :) )
Suggest correction
Give kudos to tab author, rate the tab!
1 2 3 4 5
comments
print report bad tab
guest
Wanna post a correction for this tab? Suggest correction