Oops, an error
Loading. Please wait.

Dieguitos Y Mafaldas Tab

100 views 3 this week
no commentswrite comment
1 2 3 4 5
3 more votes to show rating
add to favorites
launch autoscroll
font size
0
reset
how to read this tab
guitar tuner
×
Best way to learn
"Dieguitos Y Mafaldas"
Autoscroll
slow
fast
+/-
esc
set tempo
stop
Intro:

1ra guitarra, punteos

     D#°                                          Gm          A
e|----2--------5--8--6--5-------------------------3-----------0--------|
B|----1-----7--------------8--7-------------------3-----------2--------|
G|----2--------------------------8--7-------------3-----------2--------|
D|----1--------------------------------10--8------5-----------2--------|
A|------------------------------------------------5-----------0--------|
E|------------------------------------------------3--------------------|
                                               E          A
e|----5-p6-5--8--6--5-----5--------------------0----------0------------|
B|---------------------8--------6--------------0----------2------------|
G|-----------------------------------7---------1----------2------------|
D|---------------------------------------------1----------2------------|
A|---------------------------------------------2----------0------------|
E|---------------------------------------------0-----------------------|

 Estos punteos se repiten en varias partes de la canción

Para la letra y los acordes, pueden consultar la transcripción de Ariel González
Suggest correction
Give kudos to tab author, rate the tab!
1 2 3 4 5
comments
print report bad tab
guest
You may want to rate the tab now too:
select rating
Wanna post a correction for this tab? Suggest correction