Oops, an error
Loading. Please wait.

Rancho Electrónico tab

38 views 1 this week
no commentswrite comment
1 2 3 4 5
3 more votes to show rating
add to favorites
×
Save as Personal and add changes to this tab that will be seen only by you. Learn more ›
×
You can save this tab as Personal to edit and correct it or add notes. All changes will be seen only by you. Learn more »
launch autoscroll
font size
0
reset
how to read this tab
guitar tuner
edit
Autoscroll
slow
fast
+/-
esc
set tempo
stop
Los acordes

    D      D/C      D/F      A       G

E---2--  ---2--  ----2--  ---0--  ---3---
B---3--  ---3--  ----3--  ---2--  ---0---
G---2--  ---2--  ----2--  ---2--  ---0---
D---0--  ---0--  ----0--  ---2--  ---0---
A---0--  ---3--  ----0--  ---0--  ---2---
E---X--  ---X--  ----2--  ---0--  ---3---   


Intro

E------2----2----2----3----3----3----5----5----5----5-----
B------3----3----3----5----5----5----7----7----7----7-----
G---------------------------------------------------------
D---0-----------------------------------------------------
A---------------------------------------------------------
E---------------------------------------------------------


E------3----3----3----5----5----5----7----7----7----7-----
B------5----5----5----7----7----7----8----8----8----8-----
G---------------------------------------------------------
D---0-----------------------------------------------------
A---------------------------------------------------------
E---------------------------------------------------------


E------5----5----5----7----7----7----9----9----9----9-----
B------7----7----7----8----8----8----10---10---10---10----
G---------------------------------------------------------
D---0-----------------------------------------------------
A---------------------------------------------------------
E---------------------------------------------------------


E------10-----10-----10-----9-----9-----9-----7-----7-----5~----
B---12-----12-----12-----10----10----10----8-----8------7-------
G---------------------------------------------------------------
D---------------------------------------------------------------
A---------------------------------------------------------------
E---------------------------------------------------------------


E--------9------9------9-----7-----7-----7-----5-----5------3~----
B----10-----10-----10-----8-----8-----8-----7-----7------5--------
G-----------------------------------------------------------------
D-----------------------------------------------------------------
A-----------------------------------------------------------------
E-----------------------------------------------------------------


E-------7------7------7------5------5------5------3------3------3---
B----8------8------8------7------7------7------5------5------5------
G-------------------------------------------------------------------
D-------------------------------------------------------------------
A-------------------------------------------------------------------
E-------------------------------------------------------------------


E--------------2/3/2--0/2/0---------2------2--------------
B-----------3----------------3------3------3--------------
G--------2----------------------2----------2--------------
D----0-------------------------------------0--------------
A------------------------------------------0--------------
E------------------------------------------X--------------


Era un gran rancho electrónico         con nopales automáticos

E----------------------------2-------------------------------2------
B----------------------------2-------------------------------3------
G----------------------------0-------------------------------2------
D----------------------------0-------------------------------0------
A----------------------------2-------------------------------0------
E----------------------------3-------------------------------X------


con sus charros cibernéticos             y sarapes de neón

E-------------------------------0----------------------------
B-------------------------------2----------------------------
G-------------------------------2----------------------------
D-------------------------------2----------------------------
A-------------------------------0----------------------------
E-------------------------------0----------------------------


E----------------------------------------------------
B----2---2---2---3---3---3/5~----2---2---------------
G----2---2---2---4---4---4/6~----2---2---------------
D----------------------------------------------------
A----------------------------------------------------
E----------------------------------------------------


      (En la siguiente parte tienes que hacer rasgueo en cada acorde)

D
Era un gran un gran pueblo magnético
G
Con Marías ciclotrónicas
D                             
Tragafuegos supersónicos y su 
A
campesino sideral.

G                      D          D7
Era un gran tiempo de híbridos
                A
Era Medusa anacrónica,
G                D
una rana con sinfónica
    A        G        D
en la campechana mental


D/C   D/F   A

D                     
Era un gran sabio rupéstrico
G
de un universo doméstico
D
Pitecantropus atómico
      A
era, lider universal

D
Había frijoles poéticos y también
G
garbanzos matemáticos
D
en los pueblos esqueléticos con sus
A
guías de pedernal.

G                      D         D/7
Era un gran tiempo de híbridos
                   A
de salvajes y científicos
G                     D
panzones que estaban tísicos
    A        G        D
de la campechana mental;
       A            G        D
de la vil penetración cultural
           A         G      D
en el agandalle transnacional,
           A       G         D
en el oportuno norteño-imperial,
               A   G        D
en la desfachates empresarial
            A       G      D            
en el despiporre intelectual,
          A         G        D    
en la vulgar falta de identidad.

D/C   D/F#    A     D

D/C   D/F#    A     D


E----2--2--2--3--3--3--5--5--5--7--7--7--9---9---9---10--10--10-
B----3--3--3--5--5--5--7--7--7--8--8--8--10--10--10--12--12--12-
G---------------------------------------------------------------
D--0------------------------------------------------------------
A---------------------------------------------------------------
E---------------------------------------------------------------


  D   A    D


Si tienes alguna duda, comentario o mas material de Rodrigo Gonzales escribeme

            
            
Suggest correction
Creating personal tab
Creating personal tab
You can edit any tab online and save it as your Personal.

You can edit, replace or remove any tab part or add personal notes – all changes will be seen only by you.

Personal tabs can be accessed anytime from any device, even offline.
Learn more »
Give kudos to tab author, rate the tab!
1 2 3 4 5
comments
print report bad tab
guest
Wanna post a correction for this tab? Suggest correction