Oops, an error
Loading. Please wait.

El Carretero tab

202 views 3 this week
no commentswrite comment
1 2 3 4 5
3 more votes to show rating
add to favorites
×
Save as Personal and add changes to this tab that will be seen only by you. Learn more ›
×
You can save this tab as Personal to edit and correct it or add notes. All changes will be seen only by you. Learn more »
launch autoscroll
font size
0
reset
how to read this tab
guitar tuner
edit
Autoscroll
slow
fast
+/-
esc
set tempo
stop
Intro:

     D9                          B9                    D9
E||------12*------12------12--|-----9*-----9-----9--|------12*------12------12--|
B||------10*------------------|-----7*--------------|------10*------------------|
G||------11*------------------|-----8*--------------|------11*------------------|
D||--12-------12------12------|--9------9-----9-----|--12-------12------12------|
A||---------------------------|---------------------|---------------------------|
E||---------------------------|---------------------|---------------------------|


  B9                    A9                   G9/6                   A9
-----9*-----9-----9--|-----0*-----7--------|-----0*-----5--------|-----0*-----7--------|
-----7*--------------|-----5*-----------5--|-----3*-----------3--|-----5*-----------5--|
-----8*--------------|-----6*--------------|-----4*--------------|-----6*--------------|
--9------9-----9-----|--7------7-----7-----|--5------5-----5-----|--7------7-----7-----|
---------------------|---------------------|---------------------|---------------------|
---------------------|---------------------|---------------------|---------------------|


  G9/6                F9/7                    E           F#m       E           F#m 
-----0*-----5--------|-----0*-----3--------|-----0*-----0--------|-----0*-----0--------|
-----3*-----------3--|-----1*-----------1--|-----0*-----0-----2--|-----0*-----0-----2--|
-----4*--------------|-----2*--------------|-----1*-----1-----2--|-----1*-----1-----2--|
--5------5-----5-----|--3------3-----3-----|------------------4--|------------------4--|
---------------------|---------------------|---------------------|---------------------|
---------------------|---------------------|--0------0-----2-----|--0------0-----2-----|


  E           F#m      G#m         Gm       Am          Gm       G#m         F#m 
-----0*-----0--------|--------------------|--------------------|--------------------|
-----0*-----0-----2--|-----4-----4-----3--|-----5-----5-----3--|-----4-----4-----2--|
-----1*-----1-----2--|-----4-----4-----3--|-----5-----5-----3--|-----4-----4-----2--|
------------------4--|-----6-----6-----5--|-----7-----7-----5--|-----6-----6-----4--|
---------------------|--------------------|--------------------|--------------------|
--0------0-----2-----|--4-----4-----3-----|--5-----5-----3-----|--4-----4-----2-----|


    E           F#m       E           F#m       E           F#m       E           F#m  
|------0*-----0--------|-----0*-----0--------|-----0*-----0--------|-----0*-----0--------|
|------0*-----0-----2--|-----0*-----0-----2--|-----0*-----0-----2--|-----0*-----0-----2--|
|------1*-----1-----2--|-----1*-----1-----2--|-----1*-----1-----2--|-----1*-----1-----2--|
|-------------------4--|------------------4--|------------------4--|------------------4--|
|----------------------|---------------------|---------------------|---------------------|
|---0------0-----2-----|--0------0-----2-----|--0------0-----2-----|--0------0-----2-----|
                                                                       VERSO:        Por

  E           F#m       E           F#m       E           F#m       E           F#m     
-----0*-----0--------|-----0*-----0--------|-----0*-----0--------|-----0*-----0--------|
-----0*-----0-----2--|-----0*-----0-----2--|-----0*-----0-----2--|-----0*-----0-----2--|
-----1*-----1-----2--|-----1*-----1-----2--|-----1*-----1-----2--|-----1*-----1-----2--|
------------------4--|------------------4--|------------------4--|------------------4--|
---------------------|---------------------|---------------------|---------------------|
--0------0-----2-----|--0------0-----2-----|--0------0-----2-----|--0------0-----2-----|
 un ca mi no'e truma -  o.....   oh  oh      oh

 


 E           F#m       E           F#m       E           F#m       E           F#m  
-----0*-----0--------|-----0*-----0--------|-----0*-----0--------|-----0*-----0--------|
-----0*-----0-----2--|-----0*-----0-----2--|-----0*-----0-----2--|-----0*-----0-----2--|
-----1*-----1-----2--|-----1*-----1-----2--|-----1*-----1-----2--|-----1*-----1-----2--|
------------------4--|------------------4--|------------------4--|------------------4--|
---------------------|---------------------|---------------------|---------------------|
--0------0-----2-----|--0------0-----2-----|--0------0-----2-----|--0------0-----2-----|
                va      la carreta crujien  - do

  E           F#m       E           B4/A      B           B4/A      B           B4/A  
-----0*-----0--------|-----0*-----0-----0--|-----2*-----2-----0--|-----2*-----2-----0--|
-----0*-----0-----2--|-----0*-----0-----4--|-----4*-----4-----4--|-----4*-----4-----4--|
-----1*-----1-----2--|-----1*-----1-----4--|-----4*-----4-----4--|-----4*-----4-----4--|
------------------4--|---------------------|---------------------|---------------------|
---------------------|---------------0-----|--2------2-----0-----|--2------2-----0-----|
--0------0-----2-----|--0------0-----------|---------------------|---------------------|
                                     pal  -  pi - ta  la  ven to    le - ra

  B           B4/A      B           B4/A      B           B4/A      B           B4/A  
-----2*-----2-----0--|-----2*-----2-----0--|-----2*-----2-----0--|-----2*-----2-----0--|
-----4*-----4-----4--|-----4*-----4-----4--|-----4*-----4-----4--|-----4*-----4-----4--|
-----4*-----4-----4--|-----4*-----4-----4--|-----4*-----4-----4--|-----4*-----4-----4--|
---------------------|---------------------|---------------------|---------------------|
--2------2-----0-----|--2------2-----0-----|--2------2-----0-----|--2------2-----0-----|
---------------------|---------------------|---------------------|---------------------|
                                      en   -  tre las hojas del     trébol.....  oh oh


  B           B4/A     B           B4/A     B           B4/A     B           B4/A  
-----2*-----2-----0--|-----2*-----2-----0--|-----2*-----2-----0--|-----2*-----2-----0--|
-----4*-----4-----4--|-----4*-----4-----4--|-----4*-----4-----4--|-----4*-----4-----4--|
-----4*-----4-----4--|-----4*-----4-----4--|-----4*-----4-----4--|-----4*-----4-----4--|
---------------------|---------------------|---------------------|---------------------|
--2------2-----0-----|--2------2-----0-----|--2------2-----0-----|--2------2-----0-----|
---------------------|---------------------|---------------------|---------------------|
  oh,    oh oh         oh...

  E           F#m       E           F#m       E           F#m       E           F#m  
-----0*-----0--------|-----0*-----0--------|-----0*-----0--------|-----0*-----0--------|
-----0*-----0-----2--|-----0*-----0-----2--|-----0*-----0-----2--|-----0*-----0-----2--|
-----1*-----1-----2--|-----1*-----1-----2--|-----1*-----1-----2--|-----1*-----1-----2--|
------------------4--|------------------4--|------------------4--|------------------4--|
---------------------|---------------------|---------------------|---------------------|
--0------0-----2-----|--0------0-----2-----|--0------0-----2-----|--0------0-----2-----|
               pal   -  pi - ta la ven - to - lera en - tre  las    ho  - jas

  E           F#m       E           F#m       E           F#m       E           F#m  
-----0*-----0--------|-----0*-----0--------|-----0*-----0--------|-----0*-----0--------|
-----0*-----0-----2--|-----0*-----0-----2--|-----0*-----0-----2--|-----0*-----0-----2--|
-----1*-----1-----2--|-----1*-----1-----2--|-----1*-----1-----2--|-----1*-----1-----2--|
------------------4--|------------------4--|------------------4--|------------------4--|
---------------------|---------------------|---------------------|---------------------|
--0------0-----2-----|--0------0-----2-----|--0------0-----2-----|--0------0-----2-----|
                         del   tré   -       bol.

 


 E                    A9                   G9/6                   A9
-----0*-----0-------|-----0*-----7--------|-----0*-----5--------|-----0*-----7--------|
-----0*-----0-------|-----5*-----------5--|-----3*-----------3--|-----5*-----------5--|
-----1*-----1-------|-----6*--------------|-----4*--------------|-----6*--------------|
---------------2/---|--7------7-----7-----|--5------5-----5-----|--7------7-----7-----|
--------------------|---------------------|---------------------|---------------------|
--0------0----------|---------------------|---------------------|---------------------|
                     Recitado:                                            mi vida es

 G9/6                   A9                   G9/6                  A9            
-----0*-----5--------|-----0*-----7--------|-----0*-----5--------|-----0*-----7--------|
-----3*-----------3--|-----5*-----------5--|-----3*-----------3--|-----5*-----------5--|
-----4*--------------|-----6*--------------|-----4*--------------|-----6*--------------|
--5------5-----5-----|--7------7-----7-----|--5------5-----5-----|--7------7-----7-----|
---------------------|---------------------|---------------------|---------------------|
---------------------|---------------------|---------------------|---------------------|
  solo trumao                      ventoleras   y silencio, 

 G9/6                  F9/7                  G9/6                  F9/7             
-----0*-----5--------|-----0*-----3--------|-----0*-----5--------|-----0*-----3--------|
-----3*-----------3--|-----1*-----------1--|-----3*-----------3--|-----1*-----------1--|
-----4*--------------|-----2*--------------|-----4*--------------|-----2*--------------|
--5------5-----5-----|--3------3-----3-----|--5------5-----5-----|--3------3-----3-----|
---------------------|---------------------|---------------------|---------------------|
---------------------|---------------------|---------------------|---------------------|
                        camino el mismo camino                      con mi yunta voy 

 G9/6                  F9/7                 
-----0*-----5--------|-----0*-----3---------||
-----3*-----------3--|-----1*-----------1---||
-----4*--------------|-----2*---------------||
--5------5-----5-----|--3------3-----3------||
---------------------|----------------------||
---------------------|----------------------||
             y vengo.


Verso:
La tarde baila en las nubes... eh eh eh.
cubre de sangre los cerros,
una corona de buitres
acompaña al carretero, oh oh oh
una corona de buitres
acompaña al carretero.

Recitao:

  E                    A9                   G9/6                   A9
-----0*-----0-------|-----0*-----7--------|-----0*-----5--------|-----0*-----7--------|
-----0*-----0-------|-----5*-----------5--|-----3*-----------3--|-----5*-----------5--|
-----1*-----1-------|-----6*--------------|-----4*--------------|-----6*--------------|
---------------2/---|--7------7-----7-----|--5------5-----5-----|--7------7-----7-----|
--------------------|---------------------|---------------------|---------------------|
--0------0----------|---------------------|---------------------|---------------------|
                                                                      

 G9/6                   A9                   G9/6                  A9            
-----0*-----5--------|-----0*-----7--------|-----0*-----5--------|-----0*-----7--------|
-----3*-----------3--|-----5*-----------5--|-----3*-----------3--|-----5*-----------5--|
-----4*--------------|-----6*--------------|-----4*--------------|-----6*--------------|
--5------5-----5-----|--7------7-----7-----|--5------5-----5-----|--7------7-----7-----|
---------------------|---------------------|---------------------|---------------------|
---------------------|---------------------|---------------------|---------------------|
  A veces pierdo LA huella                                 mientras    el corazón  da 

 G9/6                  A9                    B9                     A9            
-----0*-----5--------|-----0*-----7--------|-----0*-----9-----0--|-----0*-----7--------|
-----3*-----------3--|-----5*-----------5--|-----7*--------------|-----5*-----------5--|
-----4*--------------|-----6*--------------|-----8*--------------|-----6*--------------|
--5------5-----5-----|--7------7-----7-----|--9------9-----9-----|--7------7-----7-----|
---------------------|---------------------|---------------------|---------------------|
---------------------|---------------------|---------------------|---------------------|
  un vuelco.                                  ¿cuándo   mi   vida   tendrá


 G9/6                  F9/7                 
-----0*-----5-----0--|-----0*-----3-----0---||
-----3*--------------|-----1*---------------||
-----4*--------------|-----2*---------------||
--5------5-----5-----|--3------3-----3------||
---------------------|----------------------||
---------------------|----------------------||
  el camino  que   yo   quiero.

Verso:
Un aleteo de sombras... ah ah ah
alarga más el silencio,
como hundiéndose en la noche
la carreta va crujiendo... oh oh oh
como hundiéndose en la noche
la carreta va crujiendo.

Recitao:

  E                    A9                   G9/6                   A9
-----0*-----0-------|-----0*-----7--------|-----0*-----5--------|-----0*-----7--------|
-----0*-----0-------|-----5*-----------5--|-----3*-----------3--|-----5*-----------5--|
-----1*-----1-------|-----6*--------------|-----4*--------------|-----6*--------------|
---------------2/---|--7------7-----7-----|--5------5-----5-----|--7------7-----7-----|
--------------------|---------------------|---------------------|---------------------|
--0------0----------|---------------------|---------------------|---------------------|
                                                                      

 G9/6                   A9                   G9/6                  A9            
-----0*-----5--------|-----0*-----7--------|-----0*-----5--------|-----0*-----7--------|
-----3*-----------3--|-----5*-----------5--|-----3*-----------3--|-----5*-----------5--|
-----4*--------------|-----6*--------------|-----4*--------------|-----6*--------------|
--5------5-----5-----|--7------7-----7-----|--5------5-----5-----|--7------7-----7-----|
---------------------|---------------------|---------------------|---------------------|
---------------------|---------------------|---------------------|---------------------|
  Yo también  Abro  LA  tierra                 y con ella  abro  mi  fe.


 B9                     D9                        B9                     D9            
-----0*-----9-----0--|------12*-----12------12--|-----9*-----9-----9--|-----12*------12----12--|
-----7*--------------|------10*-----------------|-----7*--------------|-----10*----------------|
-----8*--------------|------11*-----------------|-----8*--------------|-----11*----------------|
--9------9-----9-----|--12-------12-----12------|--9------9-----9-----|--12-------12----12-----|
---------------------|--------------------------|---------------------|------------------------|
---------------------|--------------------------|---------------------|------------------------|
                          ¡Apúrate,             yunta 'e  negro',                     que

 B9                    D9 
-----9*-----9-----9--|------12*------12------12---||
-----7*--------------|------10*-------------------||
-----8*--------------|------11*-------------------||
--9------9-----9-----|--12--------12-----12-------||
---------------------|----------------------------||
---------------------|----------------------------||
  comienza a amanecer.

Coda:

  B9                    A9                   G9/6                 F9/7  
-----9*-----9-----9--|-----0*-----7--------|-----0*-----5-----0--|-----0*-----3--------|
-----7*--------------|-----5*-----------5--|-----3*--------------|-----1*--------------|
-----8*--------------|-----6*--------------|-----4*--------------|-----2*--------------|
--9------9-----9-----|--7------7-----7-----|--5------5-----5-----|--3------3-----3--2--|
---------------------|---------------------|---------------------|---------------------|
---------------------|---------------------|---------------------|---------------------|

  E           F#m       E           F#m       G#m         Gm       Am          Gm     
-----0*-----0--------|-----0*-----0--------|--------------------|--------------------|
-----0*-----0-----2--|-----0*-----0-----2--|-----4-----4-----3--|-----5-----5-----3--|
-----1*-----1-----2--|-----1*-----1-----2--|-----4-----4-----3--|-----5-----5-----3--|
------------------4--|------------------4--|-----6-----6-----5--|-----7-----7-----5--|
---------------------|---------------------|--------------------|--------------------|
--0------0-----2-----|--0------0-----2-----|--4-----4-----3-----|--5-----5-----3-----|
                      deteniendo....

 G#m         F#m       E
--------------------|------------0--------|
-----4-----4-----2--|----------0----------|
-----4-----4-----2--|--------1------------|
-----6-----6-----4--|------2--------------|
--------------------|----2----------------|
--4-----4-----2-----|--0------------------|


Acordes:

  D9    B9   G9/6  F9/7  B4/A  
---12----9----5-----3-----0-------
---10----7----3-----1-----4-------
---11----8----4-----2-----4-------
---12----9----5-----3-----4-------
--------------------------0-------
----------------------------------
Suggest correction
Creating personal tab
Creating personal tab
You can edit any tab online and save it as your Personal.

You can edit, replace or remove any tab part or add personal notes – all changes will be seen only by you.

Personal tabs can be accessed anytime from any device, even offline.
Learn more »
Give kudos to tab author, rate the tab!
1 2 3 4 5
comments
print report bad tab
guest
Wanna post a correction for this tab? Suggest correction