Oops, an error
Loading. Please wait.

Pensatorium Tab

1,042 views 468 this week
no commentswrite comment
1 2 3 4 5
3 more votes to show rating
add to favorites
launch autoscroll
font size
0
reset
how to read this tab
guitar tuner
Autoscroll
slow
fast
+/-
esc
set tempo
stop
Help us to improve Ultimate-Guitar.com Take our survey!
×
Author
Difficulty
intermediate
Artista: Mägo de Oz
Álbum: Ilussia
Fecha de lanzamiento: 2014
Género: Rock en español

[INTRO ACÚSTICO] (ARPEGEO) Bm D X2

CON FLAUTA(ADAPTADO PARA GUITARRA, LAS NOTAS DE GUITARRA ARPEGEADAS)
        Bm       D          G     A          F#m 
e|-------------10-9--------------------------------|
B|---10-12-10------10--10-12------12-10------------|
G|-11--------11------11-------9-11-------9-11-12---|
D|--------------------------12---------12----------|
A|-------------------------------------------------|
E|-------------------------------------------------|

        Bm        D          Em      Bm     G       
e|--------------12-14--------14-15-14-----------------|
B|---10-12----15-----15----15--------17-15--12-14-152-|
G|-11-------------------14----------------------------|
D|----------------------------------------------------|
A|----------------------------------------------------|
E|----------------------------------------------------|

       A  F#m         A        Bm
e|-14-------------------14--------|
B|--14---------12-14-15--14---12--|
G|---14-11-----------------14-----|
D|--------------------------------|
A|--------------------------------|
E|--------------------------------|

[INTRO CORO] Y GUITARRA ELÉCTRICA:  Bm G A D A X1
   Bm                           G 
e|--------------------------------------------------------------|
B|--------------------------------------------------------------|
G|--------------------------------------------------------------|
D|-----------------------------------------7-7-7----------------|
A|-9-9-9-7-7-7-10-10-10-9-9-7---9-9-9-7-7-7-----9-9-7-----------|
E|--------------------------------------------------------------|

  A                            D                 A 
e|--------------------------------------------------------------|
B|--------------------------------------------------------------|
G|--------------------------------------------------------------|
D|--------------------------------------------------------------|
A|----------------------------10-10-10-9-9-9-9---9-9-9-7-7-7-7--|
E|-10-10-10-9-9-9-7-7-7-9-9-10----------------------------------|

   G        F#m 
                 ....LIGADOS......
e|---------------5-6-5-6--7-9-7-9----|
B|--7-8-7-7---7-8--------------------|
G|-9-----9---9-----------------------|
D|-----------------------------------|
A|-----------------------------------|
E|-----------------------------------|

ESCALAS DE NOTAS DE GUITARRA (TODAS EN QUINTA)
G#m A Bm C#m D#m Em  
C#m D#m Em G#m F#m D#m

[GUITARRA 1]
  G#m         E       A        E   F#m            C#m    D         Bm
e|-16-16-14-12------------12----------------------12-12--16-16-17-19-19-|
B|------------16-12--14-16--14-12----12-14-12---------------------------|
G|-----------------13--------------14--------14-13----------------------|
D|----------------------------------------------------------------------|
A|----------------------------------------------------------------------|
E|----------------------------------------------------------------------|

[GUITARRA 2]
e|-4-4---------------------------------4-4--5-7-7----------------------|
B|----7-5-4------4-5--------------5-5----------------------------------|
G|---------4----6---6-4---4-6-4----------------------------------------|
D|----------6--6---------7-----7-6-------------------------------------|
A|---------------------------------------------------------------------|
E|---------------------------------------------------------------------|

[VERSO 1]
C#m      E        C#m               G#m
Llévame hasta tí, quiero vivir en tus labios,
F#m          C#m             E                 B
quiero ser la luz del sol que te despierte al dormir,
C#m     E       C#m             G#m
grabaré tu voz entre mi piel y tus besos,
F#m          C#m        E                 B
te traeré brisa del mar para que bebas de mí.

A               G#m
Soy los sueños, soy la realidad,
C#m               B
soy la voz que en tí,
A             G#m
juega con cambiar tu bien del mal,
A       B        C#m
viviré dentro de tí,
A       B        G#
dormiré dentro de tu ser...

[CORO]
C#m          G#m         A          E
Sobre el arcoíris hay un sitio para tí,
F#m                C#m      A                   B
de hilos hechos de libertad, por si te quieres venir,
C#m         G#m         A               E
más allá de la verdad hay nubes de cristal,
F#m            C#m         A             B
lluvia echa de eternidad, vente conmigo a vivir.

[SOLO DE GUITARRA]
  E             D#             C#m      A         B          
e|-----7-7-------------------------------------------------|
B|-9-10---10-9--7-9-10-10-9-7---7-9-9-7--------------------|
G|-----------------------------9-------9-9-11-9--8---------|
D|---------------------------------------------------------|
A|---------------------------------------------------------|
E|---------------------------------------------------------|

   E                D#          F#m              B
e|------------9-11-12-11-9-----------9---------------------|
B|-9-10--12-12------------12-9--10-12-9--------9-12--------|
G|-------------------------------------11--9-11------------|
D|---------------------------------------------------------|
A|---------------------------------------------------------|
E|---------------------------------------------------------|

[VERSO 2]
C#m   E        C#m                  G#m
Soñaré tu voz para que me hables de noche,
F#m         C#m        E                  B
para que me den calor, susúrrame besos de amor,
C#m    E       C#m            G#m
lloran soledad todos aquellos recuerdos,
F#m             C#m           E                  B
que se ahogaron de esperar el aire que hay en tu besar.

A            G#m
Soy momento, soy eternidad,
C#m              B
soy la locura en tí,
A             G#m
soy lo nuevo, soy caducidad,
    A         B   C#m
soy Alicia en tu país,
       A       B         G#
el sombrerero pregunta por tí...

[CORO]
C#m          G#m         A          E
Sobre el arcoíris hay un sitio para tí,
F#m                C#m      A                   B
de hilos hechos de libertad, por si te quieres venir,
C#m         G#m         A               E
más allá de la verdad hay nubes de cristal,
F#m            C#m         A             B
lluvia echa de eternidad, vente conmigo a vivir...

C#m        G#m
¿Dónde estarán
     A                     E   B
esos ojos que busco en mis sueños?
C#m            G#m
Dime, ¿Dónde están
    A                       E B
las palabras de amor que te di?

[FLAUTA]
   C#m     G#m       A        E B     C#m      
e|-12-11-9-----------9-9-9-9--9------12-11-9---|
B|--------9-12---9-12-------12-9---------------|
G|------------------------------11-------------|
D|---------------------------------------------|
A|---------------------------------------------|
E|---------------------------------------------|

     E       A             G#m  D#m  
e|------------9-9-9-9-11-12-11---16--|
B|-9-12--9-12------------------------|
G|-----------------------------------|
D|-----------------------------------|
A|-----------------------------------|
E|-----------------------------------|

[CORO Y GUITARRA ELÉCTRICA] C#m A   B  E  D#m  X1
  C#m                         A                     
e|--------------------------------------------------|
B|--------------------------------------------------|
G|---------------------------------------4-4-4------|
D|-6-6-6-4-4-4-7-7-7-6-6-4----6-6-6-4-4-4-----6-6-4-|
A|--------------------------------------------------|
E|--------------------------------------------------|

   B
e|----------------------------|
B|----------------------------|
G|----------------------------|
D|----------------------------|
A|-7-7-7-6-6-6-4-4-4-6-6-7----|
E|----------------------------|

   E             D#m 
e|------------------------------|
B|------------------------------|
G|------------------------------|
D|-7-7-7-6-6-6---6-6-6-4-4-4----|
A|------------------------------|
E|------------------------------|
  
[SOLO DE GUITARRA] (MI PRIMERA TRANSCRIPCIÓN, DISCULPEN ERRORES)
   A                                 G#m   
   Full       |Ligado|               *~~~ ~~~ ~~~                                          
e|-----------------------------------9-11-12-11-9-|
B|-12---12-10--9-10-9----------9------------------|
G|----------------------11-9-11-------------------|
D|------------------------------------------------|
A|------------------------------------------------|
E|------------------------------------------------|

  LIGADO
e|-----------------------------------|
B|12-10-9--9-10-9--------------------|
G|-------11-------11-9-8-9-11-9-8--8-|
D|-------------------------------11--|
A|-----------------------------------|
E|-----------------------------------|

 A                                           G#m
 ........LIGADOS...........
     X3     X3        X3      Full/Vibrato         
e|---------8-9-8---11-12-11----15(12)-----17-16----|
B|-9-10-9------------------------------------------|
G|-------------------------------------------------|
D|-------------------------------------------------|
A|-------------------------------------------------|
E|-------------------------------------------------|

e|----------------------------------------|
B|19-17-16-16-17-16---16------------------|
G|------------------18---14-16-18-16-14---|
D|----------------------------------------|
A|----------------------------------------|
E|----------------------------------------|

                   A 
e|-----------------9-12-11-12-9-12-11-12--11-14-12-14-11-14-12-14--|
B|-----------------------------------------------------------------|
G|-----------------------------------------------------------------|
D|-18-16-18-19-18--------------------------------------------------|
A|-----------------------------------------------------------------|
E|-----------------------------------------------------------------|

                   A 
e|-12-16-14-16-12-16-14-16-|
B|-------------------------|
G|-------------------------|
D|-------------------------|
A|-------------------------|
E|-------------------------|

                              B
                                 Full
e|-14-17-16-17-14-17-16-17-19-17-19--------|
B|-----------------------------------------|
G|-----------------------------------------|
D|-----------------------------------------|
A|-----------------------------------------|
E|-----------------------------------------|

[PARTE KEYBOARD] C#m   G#m A E F#m C#m A B  X2

A G#m

C#m      B        A                       E   B
La oscuridad es la ausencia de luz en tus sueños,
C#m       G#m      A                    B
la sombra es el camino que hay que recorrer,
C#m       B       A                E   B
la penumbra es de mudar de colores tu alma,
C#m     G#m        A           B
ceguera es no saber qué camino elegir.

[CORO]
C#m          G#m         A          E
Sobre el arcoíris hay un sitio para tí,
F#m                C#m      A                   B
de hilos hechos de libertad, por si te quieres venir,
C#m         G#m         A               E
más allá de la verdad hay nubes de cristal,
F#m            C#m         A             B
lluvia echa de eternidad, vente conmigo a vivir...

[FINAL CON COROS Y GUITARRA]
  C#m                            A   
e|------------------------------------------7-7-7----------|
B|-9-9-9-7-7-7-10-10-10-9-9-7----9-9-9-7-7-7-----9-9-7-----|
G|---------------------------------------------------------|
D|---------------------------------------------------------|
A|---------------------------------------------------------|
E|---------------------------------------------------------|

  E                          B                 D#m   
e|---------------------------------------------------------|
B|---------------------------10-10-10-10-9-9---9-9-9-9-7-7-|
G|-9-9-9-8-8-8-7-7-7-8-8-9---------------------------------|
D|---------------------------------------------------------|
A|---------------------------------------------------------|
E|---------------------------------------------------------|

   C#m  F#m    B       C#m
e|---------------------------------------------------------|
B|-9-9-9-7-7-7-10-10-10-9----------------------------------|
G|---------------------------------------------------------|
D|---------------------------------------------------------|
A|---------------------------------------------------------|
E|---------------------------------------------------------|

************************************

| ~    Vibrato
| (n)  Ghost note

************************************

CUALQUIER DUDE Y/O COMENTARIO ESCRÍBANME A: siwar_9@hotmail.com
Suggest correction
Give kudos to tab author, rate the tab!
1 2 3 4 5
comments
print report bad tab
guest
You may want to rate the tab now too:
select rating
Wanna post a correction for this tab? Suggest correction