Oops, an error
Loading. Please wait.

Y Serás Canción Tab

version 1
version 1

Whole song

144 views 1 this week
no commentswrite comment
1 2 3 4 5
3 more votes to show rating
add to favorites
launch autoscroll
font size
0
reset
how to read this tab
guitar tuner
×
Best way to learn
"Y Serás Canción"
Autoscroll
slow
fast
+/-
esc
set tempo
stop
hola esta es mi version de solo espero que les guste:
intro:(completo) "mira alfredo esta aqui"

1||-7---7-8-7-5----5-5-5-3-5-7----------|
2||---5---------7-----------------------|
3||-------------------------------------|
4||-------------------------------------|
5||-------------------------------------|
6||-------------------------------------|

1||-7---7-8-7-5------5-5-5-3-5-7--------|
2||---5---------7-3---------------------|
3||-------------------------------------|
4||-------------------------------------|
5||-------------------------------------|
6||-------------------------------------|

1||-7---7-8-7-5------5-5-5-3-5----------|
2||---5---------7-3------------5--------|
3||-------------------------------------|
4||-------------------------------------|
5||-------------------------------------|
6||-------------------------------------|

1||----------------------------------|
2||-5-8-7-5-3-5---5------------------|
3||-------------4--------------------|
4||----------------------------------|
5||----------------------------------|
6||----------------------------------|

1||----------------------------------|
2||-5-8-7-5-3-5---5------------------|
3||-------------4--------------------|
4||----------------------------------|
5||----------------------------------|
6||----------------------------------|

1||----------------------------------|
2||-5-8-7-5-3-5---5------------------|
3||-------------4--------------------|
4||----------------------------------|
5||----------------------------------|
6||----------------------------------|

1||----------------------------------|
2||-5-8-7-5-3-5----------------------|
3||----------------------------------|
4||----------------------------------|
5||----------------------------------|
6||----------------------------------|

qui va el solo:
1||------------------------------------------------------------|
2||-12b13-12---------------------------------------------------|
3||----------15-13-12-15-13-12----13-12-------12---------------|
4||----------------------------15-------15-13----15-13-12------|
5||-------------------------------------------------------15---|
6||------------------------------------------------------------|

1||------------------------------------------------------------|
2||--------------------------------------------12h13HA---------|
3||--------------------------------12--------------------------|
4||----12-13-15-13-12-----12-13-15----15-13-12-----------------|
5||-15----------------15---------------------------------------|
6||------------------------------------------------------------|

1||--------------|
2||-13p12p8------|
3||--------------|
4||--------------|esto se hase 7 veces
5||--------------|
6||--------------|

1||----------------------------------|
2||-13-13-13-12-12-12-8-8-8-6-6-6----|
3||----------------------------------|
4||----------------------------------|
5||----------------------------------|
6||----------------------------------|

    T
1||------------|
2||-12-8h68----|
3||------------| esto se toca 8 veces
4||------------| aproximadamente
5||------------|
6||------------|

    T
1||------------|
2||-13-12h812--|
3||------------|esto va despues
4||------------|de lo anterior e
5||------------|igual son 8 veces
6||------------|aproximadamente

1||-14b15---------14b15----------------------------------------|
2||-------(12h13)-------19-18-17-16-18-17-16-15-17-16-15-14--13|
3||------------------------------------------------------------|
4||------------------------------------------------------------|
5||------------------------------------------------------------|
6||------------------------------------------------------------|

1||----------15----------------------|
2||----15-16----18-18-18-18p15-------|
3||-17-------------------------17----|
4||----------------------------------|
5||----------------------------------|
6||----------------------------------|

1||-------18-------18------------------------------------------|
2||-19b20----19h20----21-20-18-21-20-18----20-18-------18------|
3||-------------------------------------20-------20-19----20---|
4||------------------------------------------------------------|
5||------------------------------------------------------------|
6||------------------------------------------------------------|

1||-------------------------|
2||-------------------------|
3||-19-17-19-20--19-17-19---|
4||-------------------------|
5||-------------------------|
6||-------------------------|

1||-18-16-15----16-15-------15---------------------------------|
2||----------18-------18-16----18-16-15-18-16-15---------------|
3||----------------------------------------------17------------|
4||------------------------------------------------------------|
5||------------------------------------------------------------|
6||------------------------------------------------------------|

1||-------18-------18-------18-------18------------------------|
2||-19b20----19b20----19b20----19b20----19b20/-----------------|
3||------------------------------------------------------------|
4||------------------------------------------------------------|
5||------------------------------------------------------------|
6||------------------------------------------------------------|

los acordes que acompañar son:
C5, A#5, G5, F5 x4veces
 la simbologia usada:
B: bens
p: pull-off
/: slide-off
T: tapping
( ): gost note
HA: armonico artificial
 buca en el face
como "hector bor jaja"
Suggest correction
Give kudos to tab author, rate the tab!
1 2 3 4 5
comments
print report bad tab
guest
You may want to rate the tab now too:
select rating
Wanna post a correction for this tab? Suggest correction