Oops, an error
Loading. Please wait.

Saints Of Los Angeles bass

version 2
version 2

Whole song

Interactive

8,518 views 1 this week
4 commentsread comments
1 2 3 4 5
x 3
add to favorites
×
Save as Personal and add changes to this tab that will be seen only by you. Learn more ›
×
You can save this tab as Personal to edit and correct it or add notes. All changes will be seen only by you. Learn more »
launch autoscroll
font size
0
reset
guitar tuner
backing track
0:00
0:00
edit
Autoscroll
slow
fast
+/-
esc
set tempo
stop
Author
Difficulty
G-0-0-2-3-2-0---3-2-0-0---0-0-2-3-2-0---3-2-0-0-----|
D---------------------------------------------------|
A---------------------------------------------------|
E---------------------------------------------------|

G--0-0-2-3-2-0--5-3-2-0----0-2-3-2-3-2-3-2-3--0-0-0-0-0-0--|.........
D----------------------------------------------------------|
A----------------------------------------------------------|
E----------------------------------------------------------|

G-0-0-2-3-2-0---3-2-0-0---0-0-2-3-2-0---3-2-0-0-----|
D---------------------------------------------------|
A---------------------------------------------------|
E---------------------------------------------------|

G--0-0-2-3-2-0--5-3-2-0----0-2-3-2-3-2-3-2-3--0-0-0-0-0-0--|.........
D----------------------------------------------------------|
A----------------------------------------------------------|
E----------------------------------------------------------|

then it goes into the main riff and he starts singing. if you want that part let me know 
i will try that too. i am kinda in a hurry so if you dont think a part is right let me 
and i will do this again when i have more time. tabed by basskid29

            
            
Suggest correction
Creating personal tab
Creating personal tab
You can edit any tab online and save it as your Personal.

You can edit, replace or remove any tab part or add personal notes – all changes will be seen only by you.

Personal tabs can be accessed anytime from any device, even offline.
Learn more »
Give kudos to tab author, rate the tab!
1 2 3 4 5
comments
print report bad tab
4 comments total. Showing first comments.
0 reply
HailSatan19 30 Aug 15, 2008 08:25 PM

Ya it sounds great, can u put the next part up

0 reply
danx14xjan 10 Aug 26, 2008 12:48 PM

i tried it and then i listened to it on my ipod and u have it wrong...
on the G-string its 000232 0 2 00 and then it repeats.... listen to the song on youtube or something...

0 reply
metalcorebass 10 May 30, 2009 11:48 AM

can you finish the rest?

guest
You may want to rate the tab now too:
select rating
Wanna post a correction for this tab? Suggest correction