Oops, an error
Loading. Please wait.

El Cuco Y La Zíngara Tab

112 views 1 this week
no commentswrite comment
1 2 3 4 5
2 more votes to show rating
add to favorites
launch autoscroll
font size
0
reset
how to read this tab
guitar tuner
×
Best way to learn
"El Cuco Y La Zíngara"
Autoscroll
slow
fast
+/-
esc
set tempo
stop
Toda la canción va rapido

INTRO
X2
-------------15--------------15-------------15-17-15-------
-15-15-17h18-----15-15-17h18----15-15-17h18----------18-17-
-----------------------------------------------------------
-----------------------------------------------------------
-----------------------------------------------------------
-----------------------------------------------------------

-------------15-------------15-------------15-------------
-15-15-17h18----15-15-17h18----15-15-17h18----18-17-15-13-
----------------------------------------------------------
----------------------------------------------------------
----------------------------------------------------------
----------------------------------------------------------

PARTE PRINCIPAL
(0:17)

-17-15----15----------------------------------15----15-17~-
-------18----18-17-18-17-15-17-15-17-18-17-18----18--------
-----------------------------------------------------------
-----------------------------------------------------------
-----------------------------------------------------------
-----------------------------------------------------------

-17-15----15---------------------------------------------
-------18----18-17-18-1-15-17-15-13----------13-13-13-15-
------------------------------------14-14-14-------------
---------------------------------------------------------
---------------------------------------------------------
---------------------------------------------------------

-17-15----15----------------------------------15----15-17-18-17-
-------18----18-17-18-17-15-17-15-17-18-17-18----18-------------
----------------------------------------------------------------
----------------------------------------------------------------
----------------------------------------------------------------
----------------------------------------------------------------

-17-15----15---------------------------------------------
-------18----18-17-18-1-15-17-15-13----------13-13-13-15-
------------------------------------14-14-14-------------
---------------------------------------------------------
---------------------------------------------------------
---------------------------------------------------------

------------------------------------------------------------------
-15-13----------13-15--18-17-15-17-15-13-15--15-13----------13-15-
-------14-15-14------------------------------------14-15-14-------
------------------------------------------------------------------
------------------------------------------------------------------
------------------------------------------------------------------

-17-15----15----------------------------------------------------
-------18----18-17-18-17-15-17-15-13----13----------------------
-------------------------------------14----14-12----------------
-------------------------------------------------15-14-15-14-12-
----------------------------------------------------------------
----------------------------------------------------------------

--------------------------------------------------
----13-------------------13-----------------------
-14---14-12-----------14----14-12-----------------
------------15-14-12--------------15-14-15-14-12--
--------------------------------------------------
--------------------------------------------------

--------------------------------------------------
----13--------------------------------------------
-14---14-12---------------------------------------
------------15-14-12~-14h15-12-14h15-12-14h15-12--
--------------------------------------------------
--------------------------------------------------

--------------------------------------------------
--------------------------------------------------
----------12----------------------------12-14-14--
-12-14-15----15-14-12----12----12-14-15-----------
----------------------------15--------------------
--------------------------------------------------

----------------------------------------------
----13----------------------13----------------
-14---14-12-------12-12--14---14-12-----------
------------15-14-------------------15-14-12~-
----------------------------------------------
----------------------------------------------

-----------------------------
-----------------------------
-----------------------------
-14h15-12-14h15-12-14h15-12--
-----------------------------
-----------------------------

--------------------------------------------------
--------------------------------------------------
----------12----------------------------12-14-14--
-12-14-15----15-14-12----12----12-14-15-----------
----------------------------15--------------------
--------------------------------------------------

----------------------------------------------
----13----------------------13----------------
-14---14-12-------12-12--14---14-12-----------
------------15-14-------------------15-14-12~-
----------------------------------------------
----------------------------------------------

--------------------------------------------
--------------------------------15-----15~--
-----------------------------14-----14------
-14h15-12-14h15-12-14h15-12-----------------
--------------------------------------------
--------------------------------------------

||||||hasta aqui toda la parte principal se repite||||||||

*solo de guitarra (1:59)

----------------------------------------------------------
----------------------------------------------------------
-14-12-------------14-12-------------14-12----------------
-------15-14-12----------15-14-12----------15-14-15-14-12-
----------------15----------------15----------------------
----------------------------------------------------------

--------------------------------
---------------------17^^-17^^--
--------------------------------
-12~-12~--14^^-14^^-------------
--------------------------------
--------------------------------

--------------------------------------
--------------------------------------
-14----------------14-----------------
----15-12----12-15----15-12----12-15--
----------12----------------12--------
--------------------------------------

PARTE 2 (2:45)

Todo en tono "FA"

X3
-10----------------------------10------------------
----10--8-10-8-10-----10-10-10----10-8-10-8-10-----
------------------7-----------------------------7--
---------------------------------------------------
---------------------------------------------------
---------------------------------------------------

-10----------------------------10-------------------
----10--8-10-8-10-----10-10-10----10----------------
------------------7------------------7-7-10-9----7--
----------------------------------------------10----
----------------------------------------------------
----------------------------------------------------

------------------------
------------------------
------------------------
-3-3-3----3-3--5-5-5-3--
-3-3-3----3-3--5-5-5-3--
-1-1-1----1-1--3-3-3-1--

*La parte principal se repite una vez más
Suggest correction
Give kudos to tab author, rate the tab!
1 2 3 4 5
comments
print report bad tab
guest
You may want to rate the tab now too:
select rating
Wanna post a correction for this tab? Suggest correction