Oops, an error
Loading. Please wait.

Tu Tienes Lo Que Quiero Tab

version 3
version 3
by Maná
67 views 3 this week
no commentswrite comment
1 2 3 4 5
3 more votes to show rating
add to favorites
launch autoscroll
font size
0
reset
how to read this tab
guitar tuner
Autoscroll
slow
fast
+/-
esc
set tempo
stop
A pedido del público...

INTRO
e|---------------------------------- 
B|----------------------------------
G|---4-5-----0-2----2---5-5-4-4-4-2- 
D|-2-------------0.---0------------- 
A|-------3-3------------------------
E|----------------------------------

e|---------------------------------- 
B|----------------------------------
G|---4-5-----0-2----2-------4-5-4-2- 
D|-2-------------0.---0-2-2--------- 
A|-------3-3------------------------
E|----------------------------------


SOLO
e|-------10-12-------10----------10---------------------------|  
B|-12-13----------12----12-10-10----10-12-13-12-12-10-12-10.--|
G|-------------12---------------------------------------------|  
D|------------------------------------------------------------|  
A|------------------------------------------------------------|
E|------------------------------------------------------------|

e|----------------10-----12-10--10-12.----------------------10------------|  
B|---------------------12-----10--------------10-12-13-12-10
Suggest correction
Give kudos to tab author, rate the tab!
1 2 3 4 5
comments
print report bad tab
guest
You may want to rate the tab now too:
select rating
Wanna post a correction for this tab? Suggest correction