Oops, an error
Loading. Please wait.

Tu Tienes Lo Que Quiero Tab

version 5
version 5
74 views 3 this week
no commentswrite comment
1 2 3 4 5
3 more votes to show rating
add to favorites
launch autoscroll
font size
0
reset
how to read this tab
guitar tuner
×
Best way to learn
"Tu Tienes Lo Que Quiero"
Autoscroll
slow
fast
+/-
esc
set tempo
stop
SOLO
e|-------10-12-------10----------10---------------------------|  
B|-12-13----------12----12-10-10----10-12-13-12-12-10-12-10.--|
G|-------------12---------------------------------------------|  
D|------------------------------------------------------------|  
A|------------------------------------------------------------|
E|------------------------------------------------------------|

e|----------------10-----12-10--10-12.----------------------10------------|  
B|---------------------12-----10--------------10-12-13-12-10?-13-12-10-12.|
G|-12-12-11-11-9-9---12----------------9-11-12----------------------------|  
D|------------------------------------------------------------------------|  
A|------------------------------------------------------------------------|
E|------------------------------------------------------------------------|

e|----------------------------------------------------------------|  
B|----------------------------------------------------------------|
G|---------9.---------9.---------9--12-12-11-11-9-9---------------|  
D|-9-10-12----9-10-12----9-10-12--------------------12-12-9-10..--|  
A|----------------------------------------------------------------|
E|----------------------------------------------------------------|


FINAL
e|--------------------------------------------|  
B|-----8-8---8-8---8-8--11-11-11-11-11..-7----|
G|-7-9-----9-----9-------------------------9--|  
D|--------------------------------------------|  
A|--------------------------------------------|
E|--------------------------------------------|

e|-11/12-12-12-12..- 11/12-12-12-12.----------------|  
B|-----------------------------------12-12-12-12..--|
G|--------------------------------------------------|  
D|--------------------------------------------------|  
A|--------------------------------------------------|
E|--------------------------------------------------|

e|-----------------------------------------------------------|  
B|-----8----10-8-------8-10-8-------8---8-8--11-11-11..-9----|
G|-7-9---9-------7-7-9----------7-9---9-------------------9--|  
D|-----------------------------------------------------------|  
A|-----------------------------------------------------------|
E|-----------------------------------------------------------|
Suggest correction
Give kudos to tab author, rate the tab!
1 2 3 4 5
comments
print report bad tab
guest
You may want to rate the tab now too:
select rating
Wanna post a correction for this tab? Suggest correction