Oops, an error
Loading. Please wait.

Tu Tienes Lo Que Quiero Tab

version 4
version 4
10 views 3 this week
no commentswrite comment
1 2 3 4 5
3 more votes to show rating
add to favorites
launch autoscroll
font size
0
reset
how to read this tab
guitar tuner
Autoscroll
slow
fast
+/-
esc
set tempo
stop
Help us to improve Ultimate-Guitar.com Take our survey!
×
Este es el solo principal de la cancion:


-------------------------------------------------------------------
---------------------------------10--10----------------------------
-------------9--12-----7-----9-----------7-------------------------
--9--10--12---------9----10----------------------------------------
-------------------------------------------------------------------
-------------------------------------------------------------------


-----5--8--7--7----------------------------------------------------
--7--------------7-7s12--10--10------------------------------------
---------------------------------12--12--11--11--9--9--7-----------
-------------------------------------------------------------------
-------------------------------------------------------------------
-------------------------------------------------------------------


----------12--10-----11--12----------------------------------------
----7s10----------7------------------------------------------------
-7-----------------------------------------------------------------
-------------------------------------------------------------------
-------------------------------------------------------------------
-------------------------------------------------------------------


--------------------------------10---------------------------------
------------10--12--13--12--10------13--12--10--12-----------------
-9--11--12---------------------------------------------------------
-------------------------------------------------------------------
-------------------------------------------------------------------
-------------------------------------------------------------------


-------------------------------------------------------------------
-------------------------------------------------------------------
------------9----------------9----------------9--12--12--11--11----
-9--10--12--------9--10--12--------9--10--12-----------------------
-------------------------------------------------------------------
-------------------------------------------------------------------


-------------------------------------------------------------------
-------------------------------------------------------------------
--9--9-------------------------------------------------------------
--------12--12--9--10----------------------------------------------
-------------------------------------------------------------------
-------------------------------------------------------------------
Suggest correction
Give kudos to tab author, rate the tab!
1 2 3 4 5
comments
print report bad tab
guest
You may want to rate the tab now too:
select rating
Wanna post a correction for this tab? Suggest correction