Oops, an error
Loading. Please wait.

Vinagre Y Rosas Tab

55 views 1 this week
no commentswrite comment
1 2 3 4 5
3 more votes to show rating
add to favorites
launch autoscroll
font size
0
reset
how to read this tab
guitar tuner
Autoscroll
slow
fast
+/-
esc
set tempo
stop
Help us to improve Ultimate-Guitar.com Take our survey!
×
Intro

            A                                E
--------------------------------|--------------------------------
-8/9--12-12-12---10-10----------|----10-10---9-------------------
------------------------9-----9-|-11-------------9-9---------9---
--------------------------11----|---------------------11--9------
--------------------------------|--------------------------------
--------------------------------|--------------------------------

         B      A     E
--------------------------------|
--------------------------------|
----9-9--8--11-----9--9-9-------|(11/13--11--9)
-11-------------11--------------|
--------------------------------|
--------------------------------|

Estrofa

E
Cuando aprendí a tragar fuego

el circo ya se había ido
                       B
de Albacete a Nueva York.

El elefante está ciego

el domador malherido
    A         B         E
¿quién ha mentido, mi amor?

A
La canción que estoy cantando

empieza en otras canciones
                     B
y acaba en un hospital.

¿Por qué me sigo jugando

la vida a pares o nones
 A      B        E
por fulanita de tal?


Estribillo

               A
Cuando el flautista de Hamelín
           E
sacó un ratón de su bombín,
        B           A         E
Polichinela se fugó con Arlequín.
         A
Hay mariposas de arrabal
              E
que nunca aprenden a volar,
           B
vinagre y rosas,
      A    B     E
a la hora de cenar.


Intro

            A                                E
--------------------------------|--------------------------------
-8/9--12-12-12---10-10----------|----10-10---9-------------------
------------------------9-----9-|-11-------------9-9---------9---
--------------------------11----|---------------------11--9------
--------------------------------|--------------------------------
--------------------------------|--------------------------------

         B      A     E
--------------------------------|
--------------------------------|
----9-9--8--11-----9--9-9-------|(11/13--11--9)
-11-------------11--------------|
--------------------------------|
--------------------------------|


Estrofa

E
La trapecista polaca

se encaprichó de un forzudo
                B
caminito de Moscú.

Cambió mi oro por su alpaca,

maldita ley del embudo,
     A    B         E
no valgo menos que tú.
   A
El lanzador de cuchillos

por llevarse algo al bolsillo
                  B
trabaja de afilador.

El hombre bala se enfada,

su pólvora está empapada
   A      B         E
de tanto decir adiós.


Estribillo

           A
Cuando el flautista de Hamelín
           E
sacó un ratón de su bombín,
        B         A            E
Polichinela se fugó con Arlequín.
         A
Hay mariposas de arrabal
             E
que nunca aprenden a volar,
           B
vinagre y rosas,
     A    B     E
a la hora de cenar.


Intro x3

Tk groña
Suggest correction
Give kudos to tab author, rate the tab!
1 2 3 4 5
comments
print report bad tab
guest
You may want to rate the tab now too:
select rating
Wanna post a correction for this tab? Suggest correction