Oops, an error
Loading. Please wait.

Hoy Te Confieso Tab

version 1
version 1

Whole song

85 views 1 this week
no commentswrite comment
1 2 3 4 5
3 more votes to show rating
add to favorites
launch autoscroll
font size
0
reset
how to read this tab
guitar tuner
×
Best way to learn
"Hoy Te Confieso"
Autoscroll
slow
fast
+/-
esc
set tempo
stop
HOLA QUE TAL, ESTA ES MI PRIMER TRANSCRIPCION, ESPERO Y LES GUSTE
NOTA: TOCAR ESTA CANCION ES CUESTION DE ESTILOS OK, SALUDOS

INTRO:
E----------------------------------------
B---------7---7-9-10-10--9-9-7-7--5-5---5
G---4--6--7---7-9-11-11--9-9-7-7--6-6-5-6
D----------------------------------------
A----------------------------------------
E----------------------------------------

E------------------------------
B---5-7-9-9--7-7-5-5--3-3---3--
G---6-7-9-9--7-7-6-6--4-4-3-4--
D------------------------------
A------------------------------
E------------------------------


E----------------------------5--5h7-5----------0----|
B--------3-3--2-----------------------5h7-5/0--0----|
G----4-6--------4-4--2-4-4/6------------------------|
D---------------------------------------------------|
A---------------------------------------------------|
E---------------------------------------------------|
( DESPUES DEL INTO SE TOCA LA NOTA E7, SOLA)

E7

(SILENCIO.........)    A
El tiempo pasa y no es preciso

buscar la forma de evitarlo
(SILENCIO) D          Dm
  teniendo tu calor.
                 Bm
Iran pasando los minutos,
            E
ire viviendo poco a poco
   A                  E7
viviendo de tu amor.

(SILENCIO).... A
Tocar tu piel, sentirte mía

llevarte siempre aqui a mi lado
   D                Dm
es forma de soñar.

                    Bm
En los momentos más felices
                 E
tener por dentro cicatrices
    A                  A7
que no debes borrar.

      D
Yo también,
        Bm                   C#m
te juro ahora que jamás te olvidaré
            F#7                 Bm
que nuestro nido la tormenta no podrá
          D          E         A            A7
echar a un lado, sin pensar en el final.

     D
Pero yo,
      Bm                     C#m
hoy necesito de tu forma de vivir,
          F#7                          Bm
no quiero estar tan solitario aqui en la casa,
       D         E
Hoy te confieso vida:
 A
yo te amo.

e|----------------------------------------------------------------------|
B|------2-0-3-2-0---2---------2-0-3-2-0---2-------10-12-14-14-12-10-----|
G|----------------2---------------------2---------------------------11--|
D|---2----------------2-----2---------------2---------------------------|
A|----------------------------------------------------------------------|
E|----------------------------------------------------------------------|

e|----14-12--10-10-9-12-10---10--9-9-7-7-5-4-12---|
B|--------------------------7---------------------|
G|--11--------------------------------------------|
D|------------------------------------------------|
A|------------------------------------------------|
E|------------------------------------------------|

e|-------12-14-12-----------------------|
B|--------12-10-12-14---14-12-----------|
G|--------------------------------------|
D|--------------------------------------|
A|--------------------------------------|
E|--------------------------------------|


e|-----------------------------------|
B|--5--4-5-6--5-6-7--5-7-9-7-10------|
G|-----------------------------------|
D|-----------------------------------|
A|-----------------------------------|
E|-----------------------------------|

(SILENCIO).... A
Tocar tu piel, sentirte mía

llevarte siempre aqui a mi lado
   D                Dm
es forma de soñar.

                    Bm
En los momentos más felices
                 E
tener por dentro cicatrices
    A                  A7
que no debes borrar.

      D
Yo también,
        Bm                   C#m
te juro ahora que jamás te olvidaré
            F#7                 Bm
que nuestro nido la tormenta no podrá
          D          E         A            A7
echar a un lado, sin pensar en el final.

     D
Pero yo,
      Bm                     C#m
hoy necesito de tu forma de vivir,
          F#7                          Bm
no quiero estar tan solitario aqui en la casa,
       D         E
Hoy te confieso vida:
 A
yo te amo
F
tu me amas
A
yo te amo
F
tu me amas
A
yo te amo


ESPERO Y LES GUSTE
Suggest correction
Give kudos to tab author, rate the tab!
1 2 3 4 5
comments
print report bad tab
guest
You may want to rate the tab now too:
select rating
Wanna post a correction for this tab? Suggest correction