Oops, an error
Loading. Please wait.

Peces De Ciudad Tab

290 views 3 this week
no commentswrite comment
1 2 3 4 5
3 more votes to show rating
add to favorites
launch autoscroll
font size
0
reset
how to read this tab
guitar tuner
Autoscroll
slow
fast
+/-
esc
set tempo
stop
Help us to improve Ultimate-Guitar.com Take our survey!
×
                                         Intro (piano)
--12---------------------12h14----------------------------------3-2-0--------------------------
-----10-10-10-12-12----5--------10-10-10-12-12-12----5----------3-3-3---1h2h0---3-3-2----------
-----11-11-11----------7--------11-11-11-------------7----------2-2-2-2-------2----------------
-----12-12-12----------7--------12-12-12-------------7--------0-0-0-0--------------------------
-----0--0--0-----------7-----------------------------7----0h2----------------------------------
--------------------12----------------------------12----3--------------------------------------
   


 G G G G D D D D       Asus4 Asus4 Asus4 A G G             D D D D D
-------------------------------------------------3---3---3---------2h0------------------5-0----
-----------------2h0-----------------------------3---3---3-------------2h0---2------2----------
---------------------2-------------------------0---0---0-------------------2---2--0---2--------
-----------------------------------------------------------------------------------------------
-----------------------------------------------------------------------------------------------
-------------------------------------------------3---3---3-------------------------------------


 G G G G G D Dsus2                  G G G G D Dsus2       (entra LA guitarra en A)            
-----------------------------------------------------------------------------------------------
-----------------------2-0---2-2----------------------0---2h0---3-3-2--------------------------
-------------------3h4-----2-----2------------------2---2-----0--------------------------------
-----------------------------------------------------------------------------------------------
-----------------------------------------------------------------------------------------------
-----------------------------------------------------------------------------------------------
                    G                     D               A Asus4   A   
-----0-5---5-5---5-10-----0-7-5-7-5-5-5-7-5-1h2-2h0---0-2h0-2h5-5-5-5--------------------------
---0-----7-----8--------0---------------------------2------------------------------------------
-2--------------------2------------------------------------------------------------------------
-----------------------------------------------------------------------------------------------
-----------------------------------------------------------------------------------------------
-----------------------------------------------------------------------------------------------
   
 G                   D                 A Asus4 A 
-----------3-0-2-0---2h0---0-0---0-0-----2h5-5-------------------------------------------------
---------3---------3-----3-----3-----2---------------------------------------------------------
-0-4-2-4-------------------------------2-------------------------------------------------------
-----------------------------------------------------------------------------------------------
-----------------------------------------------------------------------------------------------
-----------------------------------------------------------------------------------------------


 Se peinaba a lo garc,on la viajera que quiso enseñarme a besar en la Gare de Austerlitz.
        A                     F#m                  D                   A               Asus4 Asus4      
-------------------------------------------------------------------------------------------------------0-5-4
-----------------------------------------------------------------------------------------------------0------
---------------------------------------------------------------------------------------------------2--------
------------------------------------------------------------------------------------------------------------
------------------------------------------------------------------------------------------------------------
------------------------------------------------------------------------------------------------------------
 Primavera de un amor         amarillo y fugaz como el sol del veranillo de San Martín.
       F#m                        D           D/C#      Bm  Bm/A          E 
----------------------5-4-2-------------------------------------------------------------2-4h5-2h0----
-----------------------------------------------------------------------------------------------------
-----------------------------------------------------------------------------------------------------
-----------------------------------------------------------------------------------------------------
-----------------------------------------------------------------------------------------------------
-----------------------------------------------------------------------------------------------------
 Hay quien dice que fui yo          el primero en olvidar
            D                              C#m
------------2-0--0-2---0-5-0---2-0----------------------------------------------------------------
---------------3-----3-------3-------------------------------5-5---5-5----------------------------
-----------------------------------------------------------6-----6--------------------------------
--------------------------------------------------------------------------------------------------
--------------------------------------------------------------------------------------------------
--------------------------------------------------------------------------------------------------
Cuando en un si bemol de Jacques Brel conocí a mademoiselle Amsterdam.   
          Bm7                      D                   E
-----------------------------------------------------------------------2-2-2h5-0-0---0-------------
-----------------------------------------------------------------------------------2---------------
----------------------------------------------------------------------------------------------------
---------------------------------------------------------------------------------------------------
---------------------------------------------------------------------------------------------------
---------------------------------------------------------------------------------------------------------
En la fatua Nueva York                 da mas sombra que los limoneros la estatua de la Libertad
       A              Asus4 Asus4 A          F#m                D                              Asus4 Asus4 Asus4 A
-------------------------------------------------------------------------------------------------------
-----------------------------------------------------------------------------------------------------
---------------------------------------------------------------------------------------------------
--------------------------------------------------------------------------------------------------
---------------------------------------------------------------------------------------------------
---------------------------------------------------------------------------------------------------------
Pero en Desolation Row              las sirenas de los petroleros no dejan reir ni volar.
          F#m                              D     D/C#        Bm  Bm/A        E 
----------------------5-4-4-2-2-0-2---------------------------------------------------------2-2-2h5-2-0-
-----------------------------------------------------------------------------------------
---------------------------------------------------------------------------------------
---------------------------------------------------------------------------------------
-----------------------------------------------------------------------------------------
------------------------------------------------------------------------------------------
 Y en el coro de Babel               desafina un español
          D                               C#m
----------2-0---0-2---0-5---0---0-2-------------------------------------------------------------------------
--------------3-----3---------2---------------5-5-5---5-5----------------------------------------------
----------------------------------------------------6-----------------------------------------------
--------------------------------------------------------------------------------------------------
---------------------------------------------------------------------------------------------------
---------------------------------------------------------------------------------------------------------
No hay mas ley que la fiebre del oro en las minas del rey Salomón.
            G                    D                     A           Asus4 Asus4 Asus4 A
-------------------------------------------------------------------------------------------------------
-----------------------------------------------------------------------------------------------------
----------------------------------------------------------------------------------------------------
--------------------------------------------------------------------------------------------------
---------------------------------------------------------------------------------------------------
---------------------------------------------------------------------------------------------------------
Y desafiando el oleaje sin timón ni timonel
        E                     D
-----------------------------------------------0---0-2-2-4-5-------------------------------------------------
---------------------------------------------3---3-----------------------------------------------------
----------------------------------------------------------------------------------------------------
--------------------------------------------------------------------------------------------------
---------------------------------------------------------------------------------------------------
---------------------------------------------------------------------------------------------------------
Por mis sueños va ligero de equipaje sobre un cascarón de nuez mi corazón de viaje, 
          C#m                    Bm7           D            A      F#m         E
----------------------------------------------------------------------------------------5-5-5-5-2-0----------
-------------------------------------------------------------------------------------0----------------
-----------------------------------------------------------------------------------1-----------------
--------------------------------------------------------------------------------------------------
---------------------------------------------------------------------------------------------------
---------------------------------------------------------------------------------------------------------
luciendo los tatuajes de un pasado bucanero de un velero al abordaje, de un liguero de mujer
                 F#m       A            D                        A         G    D         A  Asus4 Asus4 Asus4 A      
-----------------------------------------------------------------------------------------------------------------0-5-0-0-
-----------------------------------------------------------------------------------------------------
----------------------------------------------------------------------------------------------------
--------------------------------------------------------------------------------------------------
---------------------------------------------------------------------------------------------------
---------------------------------------------------------------------------------------------------------
Y como huir cuando no quedan islas para naufragar
         E                        D 
------------------------------2-0-------------------0---0-2-4-5------------------------------------------------
--------------------------------------------------3---3------------------------------------------------
----------------------------------------------------------------------------------------------------
--------------------------------------------------------------------------------------------------
---------------------------------------------------------------------------------------------------
---------------------------------------------------------------------------------------------------------
al país donde los sabios se retiran del agravio de buscar labios que sacan de quicio,
     C#m                       Bm7         D           A        F#m             E
----------------------------------------------------------------------------------------5-5-5-5-2-0----------
-------------------------------------------------------------------------------------0----------------
-----------------------------------------------------------------------------------1-----------------
--------------------------------------------------------------------------------------------------
---------------------------------------------------------------------------------------------------
--------------------------------------------------------------------------------------------------
 mentiras que ganan juicios tan sumarios que envilecen el cristal de los acuarios de los 
                      F#m          A              D                         A            Asus4 A
-------------------------------------------------------------------------------------------------------
-----------------------------------------------------------------------------------------------------
----------------------------------------------------------------------------------------------------
--------------------------------------------------------------------------------------------------
---------------------------------------------------------------------------------------------------
---------------------------------------------------------------------------------------------------------
 peces de ciudad,           que mordieron el anzuelo,
G D           A   Asus4 A  G          D          A    Asus4
-------------------------------------------------------------------------------------------------------
-----------------------------------------------------------------------------------------------------
----------------------------------------------------------------------------------------------------
--------------------------------------------------------------------------------------------------
---------------------------------------------------------------------------------------------------
--------------------------------------------------------------3-2------------------------------------------

 que bucean a raz del suelo,         que no merecen nadar
Em                      D                              A 
---------------------------2-2-2h5--------------------------------------------------------------------------
-----------------------------------------------------------------------------------------------------
----------------------------------------------------------------------------------------------------
--------------------------------------------------------------------------------------------------
---------------------------------------------------------------------------------------------------
---------------------------------------------------------------------------------------------------------


Inter (G, D, A, Asus4, Asus4,A) se repite 4 veces


El Dorado era un champú,
La virtud unos brazos en cruz,
El pecado una página web.
En Komala comprendí
Que al lugar donde has sido feliz
No debieras tratar de volver.
Cuando en vuelo regular,
Pisé el cielo de Madrid,
Me esperaba una recien casada
Que no se acordaba de mí.

Y desafiando el oleaje
Sin timón ni timonel
Por mis sueños va ligero de equipaje
Sobre un cascarón de nuez
Mi corazón de viaje,
Luciendo los tatuajes
De un pasado bucanero
De un velero al abordaje,
De un no liguero de mujer.

Y cómo huir
Cuando no quedan islas para naufragar
Al país donde los sabios
Se retiran del agravio
De buscar labios
Que sacan de quicio.
Mentiras que ganan juicios tan sumarios
Que envilecen el cristal de los acuarios
De los peces de ciudad,
Que perdieron las agallas
En un banco de morralla.
que lloran por no llorar.


Algunas aclaraciones. Esto intenta ser una transcripcion de la version de peces de ciudad, 
cantada por el mismo en Tarrasa. La letra es tal como la he escrito. No es la misma de la de 
la version de Anan Belen. La introduccion la hace el piano. Por supuesto que la guitarra no 
puede imitar perfectamente al piano por si sola, pero creo que sale las melodias que Antonio Garcia de Diego
hace en la introduccion del tema. He puesto los acordes y el punteo en algunas partes. Tengan en cuenta
que estos musicos improvisan mucho, por lo que si ustedes tienen otra version del tema, los arreglos melodicos
no les van a sonar mucho. Recibo criticas y dudas con respecto al punteo y los acordes.
Espero que disfruten tocando el mejor tema del amigo Joaquinito, tanto como lo hice yo al tabularlo.

P.D:gracias a todas las personas que me mandaron la letra correcta del tema, y la
correccion de los acordes.
P.D.2: mi mail es juan_cafferata@
P.D.3: la parte que no tabulo no tiene muchos arreglos, si quieren, repitan los de los versos
anteriores.
Suggest correction
Give kudos to tab author, rate the tab!
1 2 3 4 5
comments
print report bad tab
guest
You may want to rate the tab now too:
select rating
Wanna post a correction for this tab? Suggest correction